  0
SECTION
  2
HEADER
  9
$ACADVER
  1
AC1009
  9
$INSBASE
 10
0.0
 20
0.0
 30
0.0
  9
$EXTMIN
 10
173.05389522231869
 20
95.069367257260396
 30
-0.0015258207003583
  9
$EXTMAX
 10
237.10876541341281
 20
184.822861278689
 30
0.0000000349246037
  9
$LIMMIN
 10
0.0
 20
0.0
  9
$LIMMAX
 10
420.0
 20
297.0
  9
$ORTHOMODE
 70
     1
  9
$REGENMODE
 70
     1
  9
$FILLMODE
 70
     1
  9
$QTEXTMODE
 70
     0
  9
$MIRRTEXT
 70
     1
  9
$DRAGMODE
 70
     2
  9
$LTSCALE
 40
1.0
  9
$OSMODE
 70
  3071
  9
$ATTMODE
 70
     1
  9
$TEXTSIZE
 40
3.5
  9
$TRACEWID
 40
1.0
  9
$TEXTSTYLE
  7
STANDARD
  9
$CLAYER
  8
0
  9
$CELTYPE
  6
BYLAYER
  9
$CECOLOR
 62
   256
  9
$DIMSCALE
 40
1.0
  9
$DIMASZ
 40
3.302
  9
$DIMEXO
 40
1.0
  9
$DIMDLI
 40
3.75
  9
$DIMRND
 40
0.0
  9
$DIMDLE
 40
0.0
  9
$DIMEXE
 40
1.0
  9
$DIMTP
 40
0.0
  9
$DIMTM
 40
0.0
  9
$DIMTXT
 40
3.5
  9
$DIMCEN
 40
2.5
  9
$DIMTSZ
 40
0.0
  9
$DIMTOL
 70
     0
  9
$DIMLIM
 70
     0
  9
$DIMTIH
 70
     1
  9
$DIMTOH
 70
     1
  9
$DIMSE1
 70
     0
  9
$DIMSE2
 70
     0
  9
$DIMTAD
 70
     1
  9
$DIMZIN
 70
     0
  9
$DIMBLK
  1

  9
$DIMASO
 70
     1
  9
$DIMSHO
 70
     1
  9
$DIMPOST
  1

  9
$DIMAPOST
  1

  9
$DIMALT
 70
     0
  9
$DIMALTD
 70
     3
  9
$DIMALTF
 40
0.0393700787
  9
$DIMLFAC
 40
1.0
  9
$DIMTOFL
 70
     1
  9
$DIMTVP
 40
0.0
  9
$DIMTIX
 70
     0
  9
$DIMSOXD
 70
     0
  9
$DIMSAH
 70
     0
  9
$DIMBLK1
  1

  9
$DIMBLK2
  1

  9
$DIMSTYLE
  2
ISO-25
  9
$DIMCLRD
 70
     0
  9
$DIMCLRE
 70
     0
  9
$DIMCLRT
 70
     0
  9
$DIMTFAC
 40
1.0
  9
$DIMGAP
 40
1.524
  9
$LUNITS
 70
     2
  9
$LUPREC
 70
     2
  9
$SKETCHINC
 40
1.0
  9
$FILLETRAD
 40
10.0
  9
$AUNITS
 70
     0
  9
$AUPREC
 70
     2
  9
$MENU
  1
.
  9
$ELEVATION
 40
0.0
  9
$PELEVATION
 40
0.0
  9
$THICKNESS
 40
0.0
  9
$LIMCHECK
 70
     0
  9
$BLIPMODE
 70
     0
  9
$CHAMFERA
 40
0.0
  9
$CHAMFERB
 40
0.0
  9
$SKPOLY
 70
     0
  9
$TDCREATE
 40
2456881.689568704
  9
$TDUPDATE
 40
2456881.6899309722
  9
$TDINDWG
 40
0.0002753472
  9
$TDUSRTIMER
 40
0.0002753241
  9
$USRTIMER
 70
     1
  9
$ANGBASE
 50
0.0
  9
$ANGDIR
 70
     0
  9
$PDMODE
 70
     0
  9
$PDSIZE
 40
-1.0
  9
$PLINEWID
 40
0.0
  9
$COORDS
 70
     1
  9
$SPLFRAME
 70
     0
  9
$SPLINETYPE
 70
     6
  9
$SPLINESEGS
 70
     8
  9
$ATTDIA
 70
     0
  9
$ATTREQ
 70
     1
  9
$HANDLING
 70
     1
  9
$HANDSEED
  5
52A
  9
$SURFTAB1
 70
     6
  9
$SURFTAB2
 70
     6
  9
$SURFTYPE
 70
     6
  9
$SURFU
 70
     6
  9
$SURFV
 70
     6
  9
$UCSNAME
  2

  9
$UCSORG
 10
0.0
 20
0.0
 30
0.0
  9
$UCSXDIR
 10
1.0
 20
0.0
 30
0.0
  9
$UCSYDIR
 10
0.0
 20
1.0
 30
0.0
  9
$PUCSNAME
  2

  9
$PUCSORG
 10
0.0
 20
0.0
 30
0.0
  9
$PUCSXDIR
 10
1.0
 20
0.0
 30
0.0
  9
$PUCSYDIR
 10
0.0
 20
1.0
 30
0.0
  9
$USERI1
 70
     0
  9
$USERI2
 70
     0
  9
$USERI3
 70
     0
  9
$USERI4
 70
     0
  9
$USERI5
 70
     0
  9
$USERR1
 40
0.0
  9
$USERR2
 40
0.0
  9
$USERR3
 40
0.0
  9
$USERR4
 40
0.0
  9
$USERR5
 40
0.0
  9
$WORLDVIEW
 70
     1
  9
$SHADEDGE
 70
     3
  9
$SHADEDIF
 70
    70
  9
$TILEMODE
 70
     1
  9
$MAXACTVP
 70
    64
  9
$PLIMCHECK
 70
     0
  9
$PEXTMIN
 10
173.0745266614
 20
-5.0
 30
0.0
  9
$PEXTMAX
 10
237.10233777639999
 20
0.0
 30
0.0
  9
$PLIMMIN
 10
168.09181762520001
 20
-6.8685158886000002
  9
$PLIMMAX
 10
242.08504681260001
 20
45.4499289914
  9
$UNITMODE
 70
     0
  9
$VISRETAIN
 70
     1
  9
$PLINEGEN
 70
     0
  9
$PSLTSCALE
 70
     1
  0
ENDSEC
  0
SECTION
  2
TABLES
  0
TABLE
  2
VPORT
 70
     1
  0
VPORT
  2
*ACTIVE
 70
     0
 10
0.0
 20
0.0
 11
1.0
 21
1.0
 12
205.08133031786571
 22
139.94611426797471
 13
0.0
 23
0.0
 14
10.0
 24
10.0
 15
10.0
 25
10.0
 16
0.0
 26
0.0
 36
1.0
 17
0.0
 27
0.0
 37
0.0
 40
90.200028817555165
 41
2.1062240663900411
 42
50.0
 43
0.0
 44
0.0
 50
0.0
 51
0.0
 71
     0
 72
   100
 73
     1
 74
     3
 75
     0
 76
     0
 77
     0
 78
     0
  0
ENDTAB
  0
TABLE
  2
LTYPE
 70
     6
  0
LTYPE
  2
CONTINUOUS
 70
     0
  3
Solid line
 72
    65
 73
     0
 40
0.0
  0
LTYPE
  2
HIDDEN
 70
     0
  3
Hidden __ __ __ __ __ __ __ __ __ __ __ __ __ __
 72
    65
 73
     2
 40
1.905
 49
1.27
 49
-0.635
  0
LTYPE
  2
PHANTOM
 70
     0
  3
Phantom ______  __  __  ______  __  __  ______
 72
    65
 73
     6
 40
12.699999999999999
 49
6.3499999999999988
 49
-1.27
 49
1.27
 49
-1.27
 49
1.27
 49
-1.27
  0
LTYPE
  2
CENTER
 70
     0
  3
Center ____ _ ____ _ ____ _ ____ _ ____ _ ____
 72
    65
 73
     4
 40
10.16
 49
6.3499999999999988
 49
-1.27
 49
1.27
 49
-1.27
  0
LTYPE
  2
CENTERX2
 70
     0
  3
Center (2x) ________  __  ________  __  _____
 72
    65
 73
     4
 40
20.32
 49
12.699999999999999
 49
-2.54
 49
2.54
 49
-2.54
  0
LTYPE
  2
DOT2
 70
     0
  3
Dot (.5x) ........................................
 72
    65
 73
     2
 40
0.635
 49
0.0
 49
-0.635
  0
ENDTAB
  0
TABLE
  2
LAYER
 70
     1
  0
LAYER
  2
0
 70
     0
 62
     7
  6
CONTINUOUS
  0
ENDTAB
  0
TABLE
  2
STYLE
 70
     1
  0
STYLE
  2
STANDARD
 70
     0
 40
0.0
 41
1.0
 50
0.0
 71
     0
 42
3.5
  3
txt
  4

  0
ENDTAB
  0
TABLE
  2
VIEW
 70
     2
  0
ENDTAB
  0
TABLE
  2
UCS
 70
     0
  0
ENDTAB
  0
TABLE
  2
APPID
 70
     3
  0
APPID
  2
ACAD
 70
     0
  0
APPID
  2
ACAD_NAV_VCDISPLAY
 70
     0
  0
APPID
  2
ACAD_MLEADERVER
 70
     0
  0
ENDTAB
  0
TABLE
  2
DIMSTYLE
 70
     1
  0
DIMSTYLE
  2
ISO-25
 70
     0
  3

  4

  5

  6

  7

 40
1.0
 41
2.5
 42
0.625
 43
3.75
 44
1.25
 45
0.0
 46
0.0
 47
0.0
 48
0.0
140
2.5
141
2.5
142
0.0
143
0.0393700787
144
1.0
145
0.0
146
1.0
147
0.625
 71
     0
 72
     0
 73
     0
 74
     0
 75
     0
 76
     0
 77
     1
 78
     8
170
     0
171
     3
172
     1
173
     0
174
     0
175
     0
176
     0
177
     0
178
     0
  0
ENDTAB
  0
ENDSEC
  0
SECTION
  2
BLOCKS
  0
BLOCK
  8
0
  2
$MODEL_SPACE
 70
     0
 10
0.0
 20
0.0
 30
0.0
  3
$MODEL_SPACE
  1
*Model_Space
  0
ENDBLK
  5
21
  8
0
  0
BLOCK
 67
     1
  8
0
  2
$PAPER_SPACE
 70
     0
 10
0.0
 20
0.0
 30
0.0
  3
$PAPER_SPACE
  1
*Paper_Space
  0
ENDBLK
  5
1D
 67
     1
  8
0
  0
ENDSEC
  0
SECTION
  2
ENTITIES
  0
POLYLINE
  5
160
  8
0
  6
CONTINUOUS
 62
     7
 66
     1
 10
0.0
 20
0.0
 30
0.0
 70
   128
  0
VERTEX
  5
4E8
  8
0
  6
CONTINUOUS
 62
     7
 10
176.67630426689999
 20
124.8223568642
 30
0.0
  0
VERTEX
  5
4E9
  8
0
  6
CONTINUOUS
 62
     7
 10
177.02360062229999
 20
124.8223569833
 30
0.0
  0
VERTEX
  5
4EA
  8
0
  6
CONTINUOUS
 62
     7
 10
177.36034455359999
 20
124.8223570987
 30
0.0
  0
VERTEX
  5
4EB
  8
0
  6
CONTINUOUS
 62
     7
 10
177.67630426689999
 20
124.8223572071
 30
0.0
  0
VERTEX
  5
4EC
  8
0
  6
CONTINUOUS
 62
     7
 10
177.96187948630001
 20
124.822357305
 30
0.0
  0
VERTEX
  5
4ED
  8
0
  6
CONTINUOUS
 62
     7
 10
178.20839315320001
 20
124.8223573895
 30
0.0
  0
VERTEX
  5
4EE
  8
0
  6
CONTINUOUS
 62
     7
 10
178.40835507450001
 20
124.8223574581
 30
0.0
  0
VERTEX
  5
4EF
  8
0
  6
CONTINUOUS
 62
     7
 10
178.5556895085
 20
124.82235750860001
 30
0.0
  0
VERTEX
  5
4F0
  8
0
  6
CONTINUOUS
 62
     7
 10
178.645919773
 20
124.8223575395
 30
0.0
  0
VERTEX
  5
4F1
  8
0
  6
CONTINUOUS
 62
     7
 10
178.67630426689999
 20
124.8223572071
 30
0.0
  0
SEQEND
  5
4F2
  8
0
  6
CONTINUOUS
 62
     7
  0
LINE
  5
1C2
  8
0
  6
CONTINUOUS
 62
     7
 10
197.25465499570001
 20
131.6226548187
 30
0.0
 11
197.25465499570001
 21
131.12265444030001
 31
0.0
  0
LINE
  5
1C3
  8
0
  6
CONTINUOUS
 62
     7
 10
197.75465499570001
 20
131.62265490620001
 30
0.0
 11
197.75465499570001
 21
131.12265444030001
 31
0.0
  0
LINE
  5
1C4
  8
0
  6
CONTINUOUS
 62
     7
 10
203.74570450339999
 20
131.12265444030001
 30
0.0
 11
203.74570450339999
 21
131.622654697
 31
0.0
  0
LINE
  5
1C5
  8
0
  6
CONTINUOUS
 62
     7
 10
204.24570450339999
 20
131.122656535
 30
0.0
 11
204.24570450339999
 21
131.62265469210001
 31
0.0
  0
LINE
  5
1C6
  8
0
  6
CONTINUOUS
 62
     7
 10
192.3104372004
 20
131.12265444030001
 30
0.0
 11
209.18990987180001
 21
131.12265444030001
 31
0.0
  0
LINE
  5
1C7
  8
0
  6
CONTINUOUS
 62
     7
 10
214.3183344565
 20
181.66668741679999
 30
0.0
 11
213.90822637310001
 21
182.79345011550001
 31
0.0
  0
LINE
  5
1C8
  8
0
  6
CONTINUOUS
 62
     7
 10
213.54128996189999
 20
181.03744919210001
 30
0.0
 11
214.3183344565
 21
181.66668741679999
 31
0.0
  0
LINE
  5
1C9
  8
0
  6
CONTINUOUS
 62
     7
 10
213.48467137860001
 20
181.01684171299999
 30
0.0
 11
213.54128996189999
 21
181.03744919210001
 31
0.0
  0
LINE
  5
1CA
  8
0
  6
CONTINUOUS
 62
     7
 10
213.58751811810001
 20
179.27237041859999
 30
0.0
 11
212.86945567800001
 21
181.2452307584999
 31
0.0
  0
LINE
  5
1CB
  8
0
  6
CONTINUOUS
 62
     7
 10
213.96861362160001
 20
179.8633870864
 30
0.0
 11
213.91199503819999
 21
179.8427796073
 31
0.0
  0
LINE
  5
1CC
  8
0
  6
CONTINUOUS
 62
     7
 10
214.96833077310001
 20
179.8808372142
 30
0.0
 11
213.96861362160001
 21
179.8633870864
 31
0.0
  0
LINE
  5
1CD
  8
0
  6
CONTINUOUS
 62
     7
 10
215.3784388565
 20
178.75407451550001
 30
0.0
 11
214.96833077310001
 21
179.8808372142
 31
0.0
  0
LINE
  5
1CE
  8
0
  6
CONTINUOUS
 62
     7
 10
214.60139436200001
 20
178.1248362908
 30
0.0
 11
215.3784388565
 21
178.75407451550001
 31
0.0
  0
LINE
  5
1CF
  8
0
  6
CONTINUOUS
 62
     7
 10
214.54477577860001
 20
178.10422881170001
 30
0.0
 11
214.60139436200001
 21
178.1248362908
 31
0.0
  0
LINE
  5
1D0
  8
0
  6
CONTINUOUS
 62
     7
 10
214.64762251810001
 20
176.3597575172999
 30
0.0
 11
213.92956007800001
 21
178.33261785720001
 31
0.0
  0
LINE
  5
1D1
  8
0
  6
CONTINUOUS
 62
     7
 10
215.02871802160001
 20
176.95077418509999
 30
0.0
 11
214.97209943819999
 21
176.93016670610001
 31
0.0
  0
LINE
  5
1D2
  8
0
  6
CONTINUOUS
 62
     7
 10
216.02843517310001
 20
176.96822431289999
 30
0.0
 11
215.02871802160001
 21
176.95077418509999
 31
0.0
  0
LINE
  5
1D3
  8
0
  6
CONTINUOUS
 62
     7
 10
216.4385432565
 20
175.84146161429999
 30
0.0
 11
216.02843517310001
 21
176.96822431289999
 31
0.0
  0
LINE
  5
1D4
  8
0
  6
CONTINUOUS
 62
     7
 10
215.66149876200001
 20
175.2122233895
 30
0.0
 11
216.4385432565
 21
175.84146161429999
 31
0.0
  0
LINE
  5
1D5
  8
0
  6
CONTINUOUS
 62
     7
 10
215.60488017860001
 20
175.19161591049999
 30
0.0
 11
215.66149876200001
 21
175.2122233895
 31
0.0
  0
LINE
  5
1D6
  8
0
  6
CONTINUOUS
 62
     7
 10
215.70772691810001
 20
173.44714461599989
 30
0.0
 11
214.98966447800001
 21
175.4200049559
 31
0.0
  0
LINE
  5
1D7
  8
0
  6
CONTINUOUS
 62
     7
 10
216.08882242160001
 20
174.03816128380001
 30
0.0
 11
216.03220383819999
 21
174.0175538048
 31
0.0
  0
LINE
  5
1D8
  8
0
  6
CONTINUOUS
 62
     7
 10
217.08853957310001
 20
174.05561141160001
 30
0.0
 11
216.08882242160001
 21
174.03816128380001
 31
0.0
  0
LINE
  5
1D9
  8
0
  6
CONTINUOUS
 62
     7
 10
217.1758575451
 20
173.8157072553
 30
0.0
 11
217.08853957310001
 21
174.05561141160001
 31
0.0
  0
LINE
  5
1DA
  8
0
  6
CONTINUOUS
 62
     7
 10
216.21696000220001
 20
172.75074364380001
 30
0.0
 11
217.1758575451
 21
173.8157072553
 31
0.0
  0
LINE
  5
1DB
  8
0
  6
CONTINUOUS
 62
     7
 10
217.6669600022
 20
161.73633233640001
 30
0.0
 11
216.21696000220001
 21
161.73633233640001
 31
0.0
  0
LINE
  5
1DC
  8
0
  6
CONTINUOUS
 62
     7
 10
217.6669600022
 20
153.56513787719999
 30
0.0
 11
217.6669600022
 21
161.73633233640001
 31
0.0
  0
LINE
  5
1DD
  8
0
  6
CONTINUOUS
 62
     7
 10
217.66793186749999
 20
153.56513787719999
 30
0.0
 11
217.6669600022
 21
153.56513787719999
 31
0.0
  0
LINE
  5
1DE
  8
0
  6
CONTINUOUS
 62
     7
 10
217.66793186749999
 20
154.06513787719999
 30
0.0
 11
217.66793186749999
 21
153.56513787719999
 31
0.0
  0
LINE
  5
1DF
  8
0
  6
CONTINUOUS
 62
     7
 10
223.96696000220001
 20
154.06513787719999
 30
0.0
 11
217.6669600022
 21
154.06513787719999
 31
0.0
  0
LINE
  5
1E0
  8
0
  6
CONTINUOUS
 62
     7
 10
223.96696000220001
 20
161.73633233640001
 30
0.0
 11
223.96696000220001
 21
154.06513787719999
 31
0.0
  0
LINE
  5
1E1
  8
0
  6
CONTINUOUS
 62
     7
 10
233.90813545660001
 20
161.73633233640001
 30
0.0
 11
223.96696000220001
 21
161.73633233640001
 31
0.0
  0
LINE
  5
1E2
  8
0
  6
CONTINUOUS
 62
     7
 10
234.20380366699999
 20
160.63288355309999
 30
0.0
 11
233.90813545660001
 21
161.73633233640001
 31
0.0
  0
LINE
  5
1E3
  8
0
  6
CONTINUOUS
 62
     7
 10
233.3748743365
 20
160.07376365990001
 30
0.0
 11
234.20380366699999
 21
160.63288355309999
 31
0.0
  0
LINE
  5
1E4
  8
0
  6
CONTINUOUS
 62
     7
 10
233.31667514380001
 20
160.0581692332
 30
0.0
 11
233.3748743365
 21
160.07376365990001
 31
0.0
  0
LINE
  5
1E5
  8
0
  6
CONTINUOUS
 62
     7
 10
233.26708982900001
 20
158.31137249470001
 30
0.0
 11
232.7237059416
 21
160.3393087707
 31
0.0
  0
LINE
  5
1E6
  8
0
  6
CONTINUOUS
 62
     7
 10
233.6982456458
 20
158.86692550399999
 30
0.0
 11
233.64004645310001
 21
158.85133107729999
 31
0.0
  0
LINE
  5
1E7
  8
0
  6
CONTINUOUS
 62
     7
 10
234.69567945049999
 20
158.7971781379
 30
0.0
 11
233.6982456458
 21
158.86692550399999
 31
0.0
  0
LINE
  5
1E8
  8
0
  6
CONTINUOUS
 62
     7
 10
235.00602310900001
 20
157.6389598369
 30
0.0
 11
234.69567945049999
 21
158.7971781379
 31
0.0
  0
LINE
  5
1E9
  8
0
  6
CONTINUOUS
 62
     7
 10
234.17709377849999
 20
157.07983994360001
 30
0.0
 11
235.00602310900001
 21
157.6389598369
 31
0.0
  0
LINE
  5
1EA
  8
0
  6
CONTINUOUS
 62
     7
 10
234.11889458580001
 20
157.06424551699999
 30
0.0
 11
234.17709377849999
 21
157.07983994360001
 31
0.0
  0
LINE
  5
1EB
  8
0
  6
CONTINUOUS
 62
     7
 10
234.06930927100001
 20
155.31744877849999
 30
0.0
 11
233.52592538350001
 21
157.34538505450001
 31
0.0
  0
LINE
  5
1EC
  8
0
  6
CONTINUOUS
 62
     7
 10
234.50046508770001
 20
155.87300178780001
 30
0.0
 11
234.44226589499999
 21
155.8574073611
 31
0.0
  0
LINE
  5
1ED
  8
0
  6
CONTINUOUS
 62
     7
 10
235.49789889249999
 20
155.80325442169999
 30
0.0
 11
234.50046508770001
 21
155.87300178780001
 31
0.0
  0
LINE
  5
1EE
  8
0
  6
CONTINUOUS
 62
     7
 10
235.80824255089999
 20
154.64503612070001
 30
0.0
 11
235.49789889249999
 21
155.80325442169999
 31
0.0
  0
LINE
  5
1EF
  8
0
  6
CONTINUOUS
 62
     7
 10
234.9793132204
 20
154.08591622739999
 30
0.0
 11
235.80824255089999
 21
154.64503612070001
 31
0.0
  0
LINE
  5
1F0
  8
0
  6
CONTINUOUS
 62
     7
 10
234.92111402770001
 20
154.07032180069999
 30
0.0
 11
234.9793132204
 21
154.08591622739999
 31
0.0
  0
LINE
  5
1F1
  8
0
  6
CONTINUOUS
 62
     7
 10
234.87152871289999
 20
152.32352506230001
 30
0.0
 11
234.3281448255
 21
154.35146133820001
 31
0.0
  0
LINE
  5
1F2
  8
0
  6
CONTINUOUS
 62
     7
 10
235.3026845297
 20
152.87907807159999
 30
0.0
 11
235.24448533699999
 21
152.86348364489999
 31
0.0
  0
LINE
  5
1F3
  8
0
  6
CONTINUOUS
 62
     7
 10
236.30011833450001
 20
152.8093307055
 30
0.0
 11
235.3026845297
 21
152.87907807159999
 31
0.0
  0
LINE
  5
1F4
  8
0
  6
CONTINUOUS
 62
     7
 10
236.61046199290001
 20
151.6511124045
 30
0.0
 11
236.30011833450001
 21
152.8093307055
 31
0.0
  0
LINE
  5
1F5
  8
0
  6
CONTINUOUS
 62
     7
 10
235.7815326624
 20
151.0919925112
 30
0.0
 11
236.61046199290001
 21
151.6511124045
 31
0.0
  0
LINE
  5
1F6
  8
0
  6
CONTINUOUS
 62
     7
 10
235.72333346970001
 20
151.0763980845
 30
0.0
 11
235.7815326624
 21
151.0919925112
 31
0.0
  0
LINE
  5
1F7
  8
0
  6
CONTINUOUS
 62
     7
 10
235.67374815490001
 20
149.329601346
 30
0.0
 11
235.1303642675
 21
151.357537622
 31
0.0
  0
LINE
  5
1F8
  8
0
  6
CONTINUOUS
 62
     7
 10
236.1049039717
 20
149.88515435529999
 30
0.0
 11
236.04670477900001
 21
149.86955992860001
 31
0.0
  0
LINE
  5
1F9
  8
0
  6
CONTINUOUS
 62
     7
 10
237.10233777639999
 20
149.8154069892
 30
0.0
 11
236.1049039717
 21
149.88515435529999
 31
0.0
  0
LINE
  5
1FA
  8
0
  6
CONTINUOUS
 62
     7
 10
228.8172070562
 20
134.0249800217
 30
0.0
 11
234.10233777639999
 21
134.0249800217
 31
0.0
  0
LINE
  5
1FB
  8
0
  6
CONTINUOUS
 62
     7
 10
225.92030257190001
 20
128.9409919119
 30
0.0
 11
226.8853554037
 21
132.5426181119
 31
0.0
  0
LINE
  5
1FC
  8
0
  6
CONTINUOUS
 62
     7
 10
224.30096317589999
 20
128.02265444029999
 30
0.0
 11
225.17932780000001
 21
128.2254408922
 31
0.0
  0
LINE
  5
1FD
  8
0
  6
CONTINUOUS
 62
     7
 10
219.14997557109999
 20
128.02265444029999
 30
0.0
 11
224.30096317589999
 21
128.02265444029999
 31
0.0
  0
LINE
  5
1FE
  8
0
  6
CONTINUOUS
 62
     7
 10
183.15437631539999
 20
131.73351471289999
 30
0.0
 11
183.1543769658
 21
136.2222799752
 31
0.0
  0
LINE
  5
1FF
  8
0
  6
CONTINUOUS
 62
     7
 10
176.67630426689999
 20
124.8223568642
 30
0.0
 11
176.67630418120001
 21
125.32235652129999
 31
0.0
  0
LINE
  5
200
  8
0
  6
CONTINUOUS
 62
     7
 10
174.0745266614
 20
124.8223568642
 30
0.0
 11
176.67630426689999
 21
124.8223568642
 31
0.0
  0
LINE
  5
201
  8
0
  6
CONTINUOUS
 62
     7
 10
173.0745266614
 20
128.22235686420001
 30
0.0
 11
173.0745266614
 21
125.8223568642
 31
0.0
  0
LINE
  5
202
  8
0
  6
CONTINUOUS
 62
     7
 10
173.97452666140001
 20
128.8223568642
 30
0.0
 11
173.67452666139999
 21
128.8223568642
 31
0.0
  0
LINE
  5
203
  8
0
  6
CONTINUOUS
 62
     7
 10
175.5014151588
 20
129.6135899699
 30
0.0
 11
175.5014151588
 21
128.8160576386
 31
0.0
  0
LINE
  5
204
  8
0
  6
CONTINUOUS
 62
     7
 10
173.9157581046
 20
139.15742923369999
 30
0.0
 11
175.22114346599989
 21
132.4996943621
 31
0.0
  0
LINE
  5
205
  8
0
  6
CONTINUOUS
 62
     7
 10
174.9038495197
 20
149.88515435529999
 30
0.0
 11
173.90641571489999
 21
149.8154069892
 31
0.0
  0
LINE
  5
206
  8
0
  6
CONTINUOUS
 62
     7
 10
174.96204871239999
 20
149.86955992860001
 30
0.0
 11
174.9038495197
 21
149.88515435529999
 31
0.0
  0
LINE
  5
207
  8
0
  6
CONTINUOUS
 62
     7
 10
175.8783892239
 20
151.357537622
 30
0.0
 11
175.3350053364
 21
149.329601346
 31
0.0
  0
LINE
  5
208
  8
0
  6
CONTINUOUS
 62
     7
 10
175.22722082889999
 20
151.0919925112
 30
0.0
 11
175.2854200216
 21
151.0763980845
 31
0.0
  0
LINE
  5
209
  8
0
  6
CONTINUOUS
 62
     7
 10
174.3982914984
 20
151.6511124045
 30
0.0
 11
175.22722082889999
 21
151.0919925112
 31
0.0
  0
LINE
  5
20A
  8
0
  6
CONTINUOUS
 62
     7
 10
174.7086351568
 20
152.8093307055
 30
0.0
 11
174.3982914984
 21
151.6511124045
 31
0.0
  0
LINE
  5
20B
  8
0
  6
CONTINUOUS
 62
     7
 10
175.70606896160001
 20
152.87907807159999
 30
0.0
 11
174.7086351568
 21
152.8093307055
 31
0.0
  0
LINE
  5
20C
  8
0
  6
CONTINUOUS
 62
     7
 10
175.7642681543
 20
152.86348364489999
 30
0.0
 11
175.70606896160001
 21
152.87907807159999
 31
0.0
  0
LINE
  5
20D
  8
0
  6
CONTINUOUS
 62
     7
 10
176.68060866580001
 20
154.35146133820001
 30
0.0
 11
176.1372247784
 21
152.32352506230001
 31
0.0
  0
LINE
  5
20E
  8
0
  6
CONTINUOUS
 62
     7
 10
176.02944027090001
 20
154.08591622739999
 30
0.0
 11
176.0876394636
 21
154.07032180069999
 31
0.0
  0
LINE
  5
20F
  8
0
  6
CONTINUOUS
 62
     7
 10
175.20051094039999
 20
154.64503612070001
 30
0.0
 11
176.02944027090001
 21
154.08591622739999
 31
0.0
  0
LINE
  5
210
  8
0
  6
CONTINUOUS
 62
     7
 10
175.51085459879999
 20
155.80325442169999
 30
0.0
 11
175.20051094039999
 21
154.64503612070001
 31
0.0
  0
LINE
  5
211
  8
0
  6
CONTINUOUS
 62
     7
 10
176.50828840360001
 20
155.87300178780001
 30
0.0
 11
175.51085459879999
 21
155.80325442169999
 31
0.0
  0
LINE
  5
212
  8
0
  6
CONTINUOUS
 62
     7
 10
176.56648759629999
 20
155.8574073611
 30
0.0
 11
176.50828840360001
 21
155.87300178780001
 31
0.0
  0
LINE
  5
213
  8
0
  6
CONTINUOUS
 62
     7
 10
176.83165971279999
 20
157.07983994360001
 30
0.0
 11
176.88985890550001
 21
157.0642455169
 31
0.0
  0
LINE
  5
214
  8
0
  6
CONTINUOUS
 62
     7
 10
176.00273038239999
 20
157.6389598369
 30
0.0
 11
176.83165971279999
 21
157.07983994360001
 31
0.0
  0
LINE
  5
215
  8
0
  6
CONTINUOUS
 62
     7
 10
176.31307404079999
 20
158.7971781379
 30
0.0
 11
176.00273038239999
 21
157.6389598369
 31
0.0
  0
LINE
  5
216
  8
0
  6
CONTINUOUS
 62
     7
 10
177.31050784550001
 20
158.86692550399999
 30
0.0
 11
176.31307404079999
 21
158.7971781379
 31
0.0
  0
LINE
  5
217
  8
0
  6
CONTINUOUS
 62
     7
 10
177.3687070382
 20
158.85133107729999
 30
0.0
 11
177.31050784550001
 21
158.86692550399999
 31
0.0
  0
LINE
  5
218
  8
0
  6
CONTINUOUS
 62
     7
 10
178.28504754970001
 20
160.3393087707
 30
0.0
 11
177.7416636623
 21
158.31137249470001
 31
0.0
  0
LINE
  5
219
  8
0
  6
CONTINUOUS
 62
     7
 10
177.63387915480001
 20
160.07376365990001
 30
0.0
 11
177.6920783475
 21
160.0581692332
 31
0.0
  0
LINE
  5
21A
  8
0
  6
CONTINUOUS
 62
     7
 10
176.8049498243
 20
160.63288355309999
 30
0.0
 11
177.63387915480001
 21
160.07376365990001
 31
0.0
  0
LINE
  5
21B
  8
0
  6
CONTINUOUS
 62
     7
 10
177.10061803470001
 20
161.73633233640001
 30
0.0
 11
176.8049498243
 21
160.63288355309999
 31
0.0
  0
LINE
  5
21C
  8
0
  6
CONTINUOUS
 62
     7
 10
185.69179348910001
 20
161.73633233640001
 30
0.0
 11
177.10061803470001
 21
161.73633233640001
 31
0.0
  0
LINE
  5
21D
  8
0
  6
CONTINUOUS
 62
     7
 10
184.73289594619999
 20
173.8157072553
 30
0.0
 11
185.69179348910001
 21
172.75074364380001
 31
0.0
  0
LINE
  5
21E
  8
0
  6
CONTINUOUS
 62
     7
 10
184.82021391820001
 20
174.05561141160001
 30
0.0
 11
184.73289594619999
 21
173.8157072553
 31
0.0
  0
LINE
  5
21F
  8
0
  6
CONTINUOUS
 62
     7
 10
185.8199310697
 20
174.03816128380001
 30
0.0
 11
184.82021391820001
 21
174.05561141160001
 31
0.0
  0
LINE
  5
220
  8
0
  6
CONTINUOUS
 62
     7
 10
185.8765496531
 20
174.0175538048
 30
0.0
 11
185.8199310697
 21
174.03816128380001
 31
0.0
  0
LINE
  5
221
  8
0
  6
CONTINUOUS
 62
     7
 10
186.91908901330001
 20
175.4200049559
 30
0.0
 11
186.20102657320001
 21
173.44714461599989
 31
0.0
  0
LINE
  5
222
  8
0
  6
CONTINUOUS
 62
     7
 10
186.2472547294
 20
175.2122233895
 30
0.0
 11
186.30387331270001
 21
175.19161591049999
 31
0.0
  0
LINE
  5
223
  8
0
  6
CONTINUOUS
 62
     7
 10
185.47021023479999
 20
175.84146161429999
 30
0.0
 11
186.2472547294
 21
175.2122233895
 31
0.0
  0
LINE
  5
224
  8
0
  6
CONTINUOUS
 62
     7
 10
185.88031831820001
 20
176.96822431289999
 30
0.0
 11
185.47021023479999
 21
175.84146161429999
 31
0.0
  0
LINE
  5
225
  8
0
  6
CONTINUOUS
 62
     7
 10
186.8800354697
 20
176.95077418509999
 30
0.0
 11
185.88031831820001
 21
176.96822431289999
 31
0.0
  0
LINE
  5
226
  8
0
  6
CONTINUOUS
 62
     7
 10
186.9366540531
 20
176.93016670610001
 30
0.0
 11
186.8800354697
 21
176.95077418509999
 31
0.0
  0
LINE
  5
227
  8
0
  6
CONTINUOUS
 62
     7
 10
187.97919341330001
 20
178.33261785720001
 30
0.0
 11
187.2611309733
 21
176.3597575172999
 31
0.0
  0
LINE
  5
228
  8
0
  6
CONTINUOUS
 62
     7
 10
187.3073591294
 20
178.1248362908
 30
0.0
 11
187.36397771270001
 21
178.10422881170001
 31
0.0
  0
LINE
  5
229
  8
0
  6
CONTINUOUS
 62
     7
 10
186.53031463479999
 20
178.75407451550001
 30
0.0
 11
187.3073591294
 21
178.1248362908
 31
0.0
  0
LINE
  5
22A
  8
0
  6
CONTINUOUS
 62
     7
 10
186.94042271820001
 20
179.8808372142
 30
0.0
 11
186.53031463479999
 21
178.75407451550001
 31
0.0
  0
LINE
  5
22B
  8
0
  6
CONTINUOUS
 62
     7
 10
187.9401398697
 20
179.8633870864
 30
0.0
 11
186.94042271820001
 21
179.8808372142
 31
0.0
  0
LINE
  5
22C
  8
0
  6
CONTINUOUS
 62
     7
 10
187.9967584531
 20
179.8427796073
 30
0.0
 11
187.9401398697
 21
179.8633870864
 31
0.0
  0
LINE
  5
22D
  8
0
  6
CONTINUOUS
 62
     7
 10
189.03929781330001
 20
181.2452307584999
 30
0.0
 11
188.3212353733
 21
179.27237041859999
 31
0.0
  0
LINE
  5
22E
  8
0
  6
CONTINUOUS
 62
     7
 10
188.3674635294
 20
181.03744919210001
 30
0.0
 11
188.42408211270001
 21
181.01684171299999
 31
0.0
  0
LINE
  5
22F
  8
0
  6
CONTINUOUS
 62
     7
 10
187.59041903479999
 20
181.66668741679999
 30
0.0
 11
188.3674635294
 21
181.03744919210001
 31
0.0
  0
LINE
  5
230
  8
0
  6
CONTINUOUS
 62
     7
 10
188.00052711820001
 20
182.79345011550001
 30
0.0
 11
187.59041903479999
 21
181.66668741679999
 31
0.0
  0
LINE
  5
231
  8
0
  6
CONTINUOUS
 62
     7
 10
189.0002442697
 20
182.7759999877
 30
0.0
 11
188.00052711820001
 21
182.79345011550001
 31
0.0
  0
LINE
  5
232
  8
0
  6
CONTINUOUS
 62
     7
 10
189.0568628531
 20
182.75539250860001
 30
0.0
 11
189.0002442697
 21
182.7759999877
 31
0.0
  0
LINE
  5
233
  8
0
  6
CONTINUOUS
 62
     7
 10
190.09940221330001
 20
184.15784365970001
 30
0.0
 11
189.3813397733
 21
182.1849833197999
 31
0.0
  0
LINE
  5
234
  8
0
  6
CONTINUOUS
 62
     7
 10
189.4275679294
 20
183.95006209330001
 30
0.0
 11
189.48418651270001
 21
183.9294546143
 31
0.0
  0
LINE
  5
235
  8
0
  6
CONTINUOUS
 62
     7
 10
188.65052343479999
 20
184.5793003181
 30
0.0
 11
189.4275679294
 21
183.95006209330001
 31
0.0
  0
LINE
  5
236
  8
0
  6
CONTINUOUS
 62
     7
 10
188.73838152409999
 20
184.82068843440001
 30
0.0
 11
188.65052343479999
 21
184.5793003181
 31
0.0
  0
LINE
  5
237
  8
0
  6
CONTINUOUS
 62
     7
 10
195.82351862280001
 20
177.63068843440001
 30
0.0
 11
195.82351862280001
 21
181.53743612669999
 31
0.0
  0
LINE
  5
238
  8
0
  6
CONTINUOUS
 62
     7
 10
206.0835186173
 20
181.5373271602999
 30
0.0
 11
206.0835186173
 21
177.63068843440001
 31
0.0
  0
LINE
  5
239
  8
0
  6
CONTINUOUS
 62
     7
 10
213.2582300565
 20
184.5793003181
 30
0.0
 11
213.1697926937
 21
184.82227997519999
 31
0.0
  0
LINE
  5
23A
  8
0
  6
CONTINUOUS
 62
     7
 10
212.48118556189999
 20
183.95006209330001
 30
0.0
 11
213.2582300565
 21
184.5793003181
 31
0.0
  0
LINE
  5
23B
  8
0
  6
CONTINUOUS
 62
     7
 10
212.42456697860001
 20
183.9294546143
 30
0.0
 11
212.48118556189999
 21
183.95006209330001
 31
0.0
  0
LINE
  5
23C
  8
0
  6
CONTINUOUS
 62
     7
 10
212.52741371799999
 20
182.1849833197999
 30
0.0
 11
211.80935127800001
 21
184.15784365970001
 31
0.0
  0
LINE
  5
23D
  8
0
  6
CONTINUOUS
 62
     7
 10
212.90850922160001
 20
182.7759999877
 30
0.0
 11
212.85189063819999
 21
182.75539250860001
 31
0.0
  0
LINE
  5
23E
  8
0
  6
CONTINUOUS
 62
     7
 10
213.90822637310001
 20
182.79345011550001
 30
0.0
 11
212.90850922160001
 21
182.7759999877
 31
0.0
  0
LINE
  5
23F
  8
0
  6
CONTINUOUS
 62
     7
 10
177.4828281078
 20
157.34538505450001
 30
0.0
 11
176.93944422029989
 21
155.31744877849999
 31
0.0
  0
LINE
  5
240
  8
0
  6
CONTINUOUS
 62
     7
 10
220.74646571220001
 20
128.52265444029999
 30
0.0
 11
219.18028328790001
 21
128.52265444029999
 31
0.0
  0
LINE
  5
241
  8
0
  6
CONTINUOUS
 62
     7
 10
218.7543767457
 20
129.6389909463
 30
0.0
 11
217.05201507180001
 21
129.18284451060001
 31
0.0
  0
LINE
  5
242
  8
0
  6
CONTINUOUS
 62
     7
 10
217.05201507180001
 20
129.18284451060001
 30
0.0
 11
219.18028328790001
 21
128.52265444029999
 31
0.0
  0
LINE
  5
243
  8
0
  6
CONTINUOUS
 62
     7
 10
216.21696000220001
 20
161.73633233640001
 30
0.0
 11
216.21696000220001
 21
163.48446683259999
 31
0.0
  0
LINE
  5
244
  8
0
  6
CONTINUOUS
 62
     7
 10
216.21696000220001
 20
172.7428071571
 30
0.0
 11
216.21696000220001
 21
172.75074364380001
 31
0.0
  0
LINE
  5
245
  8
0
  6
CONTINUOUS
 62
     7
 10
203.74570450339999
 20
131.622654697
 30
0.0
 11
217.15451004920001
 21
131.62265457110001
 31
0.0
  0
LINE
  5
246
  8
0
  6
CONTINUOUS
 62
     7
 10
173.90641571489999
 20
149.01326048600001
 30
0.0
 11
174.40641571489999
 21
148.81231111170001
 31
0.0
  0
LINE
  5
247
  8
0
  6
CONTINUOUS
 62
     7
 10
186.19179348910001
 20
163.61473177799999
 30
0.0
 11
185.69179348910001
 21
163.487021043
 31
0.0
  0
LINE
  5
248
  8
0
  6
CONTINUOUS
 62
     7
 10
213.1697926937
 20
184.82227997519999
 30
0.0
 11
204.3525267245
 21
184.82227997519999
 31
0.0
  0
LINE
  5
249
  8
0
  6
CONTINUOUS
 62
     7
 10
237.10233777639999
 20
142.03351772170001
 30
0.0
 11
236.60233777639999
 21
142.18637807030001
 31
0.0
  0
LINE
  5
24A
  8
0
  6
CONTINUOUS
 62
     7
 10
205.5835186173
 20
176.89497816580001
 30
0.0
 11
204.1025267245
 21
176.89497816580001
 31
0.0
  0
LINE
  5
24B
  8
0
  6
CONTINUOUS
 62
     7
 10
204.3525267245
 20
184.82227997519999
 30
0.0
 11
204.3525267245
 21
181.04314786879999
 31
0.0
  0
LINE
  5
24C
  8
0
  6
CONTINUOUS
 62
     7
 10
188.78180295940001
 20
131.6226549937
 30
0.0
 11
197.75465499570001
 21
131.62265490620001
 31
0.0
  0
LINE
  5
24D
  8
0
  6
CONTINUOUS
 62
     7
 10
197.80252672450001
 20
176.89497816580001
 30
0.0
 11
196.32351862280001
 21
176.89497816580001
 31
0.0
  0
LINE
  5
24E
  8
0
  6
CONTINUOUS
 62
     7
 10
185.69179348910001
 20
172.7317499753
 30
0.0
 11
186.19179348910001
 21
172.1788899627
 31
0.0
  0
LINE
  5
24F
  8
0
  6
CONTINUOUS
 62
     7
 10
196.5525267189
 20
181.27209887719999
 30
0.0
 11
196.5525267189
 21
177.63068843440001
 31
0.0
  0
LINE
  5
250
  8
0
  6
CONTINUOUS
 62
     7
 10
196.5525267189
 20
178.75068843439999
 30
0.0
 11
197.80252672450001
 21
178.75068843439999
 31
0.0
  0
LINE
  5
251
  8
0
  6
CONTINUOUS
 62
     7
 10
216.21696000220001
 20
163.48446683259999
 30
0.0
 11
215.71696000220001
 21
163.61217756760001
 31
0.0
  0
LINE
  5
252
  8
0
  6
CONTINUOUS
 62
     7
 10
196.32351862280001
 20
176.89497816580001
 30
0.0
 11
196.32351862280001
 21
177.63068843440001
 31
0.0
  0
LINE
  5
253
  8
0
  6
CONTINUOUS
 62
     7
 10
196.5525267189
 20
181.27209887719999
 30
0.0
 11
195.82351862280001
 21
181.53743612669999
 31
0.0
  0
LINE
  5
254
  8
0
  6
CONTINUOUS
 62
     7
 10
197.80252672450001
 20
180.89935498119999
 30
0.0
 11
197.5525267189
 21
181.04369253889999
 31
0.0
  0
LINE
  5
255
  8
0
  6
CONTINUOUS
 62
     7
 10
186.19179348910001
 20
172.1788899627
 30
0.0
 11
186.19179348910001
 21
163.61473177799999
 31
0.0
  0
LINE
  5
256
  8
0
  6
CONTINUOUS
 62
     7
 10
205.5835186173
 20
177.63068843440001
 30
0.0
 11
205.5835186173
 21
176.89497816580001
 31
0.0
  0
LINE
  5
257
  8
0
  6
CONTINUOUS
 62
     7
 10
197.5525267189
 20
181.04369253889999
 30
0.0
 11
197.55252672169999
 21
184.82068843440001
 31
0.0
  0
LINE
  5
258
  8
0
  6
CONTINUOUS
 62
     7
 10
237.10233777639999
 20
149.01489940440001
 30
0.0
 11
237.10233777639999
 21
149.8154069892
 31
0.0
  0
LINE
  5
259
  8
0
  6
CONTINUOUS
 62
     7
 10
237.10233777639999
 20
137.0249800217
 30
0.0
 11
237.10233777639999
 21
142.03351772170001
 31
0.0
  0
LINE
  5
25A
  8
0
  6
CONTINUOUS
 62
     7
 10
197.80252672450001
 20
176.39497816580001
 30
0.0
 11
197.80252672450001
 21
180.89935498119999
 31
0.0
  0
LINE
  5
25B
  8
0
  6
CONTINUOUS
 62
     7
 10
205.3545105211
 20
177.63068843440001
 30
0.0
 11
206.0835186173
 21
177.63068843440001
 31
0.0
  0
LINE
  5
25C
  8
0
  6
CONTINUOUS
 62
     7
 10
195.82351862280001
 20
177.63068843440001
 30
0.0
 11
196.5525267189
 21
177.63068843440001
 31
0.0
  0
LINE
  5
25D
  8
0
  6
CONTINUOUS
 62
     7
 10
196.80252672450001
 20
182.9452840893
 30
0.0
 11
197.55252672189999
 21
183.21826176459999
 31
0.0
  0
LINE
  5
25E
  8
0
  6
CONTINUOUS
 62
     7
 10
205.1025267245
 20
182.24528408929999
 30
0.0
 11
204.3525267245
 21
181.97230641359999
 31
0.0
  0
LINE
  5
25F
  8
0
  6
CONTINUOUS
 62
     7
 10
185.69179348910001
 20
172.75074364380001
 30
0.0
 11
185.69179348910001
 21
161.73633233640001
 31
0.0
  0
LINE
  5
260
  8
0
  6
CONTINUOUS
 62
     7
 10
204.1025267245
 20
178.75068843439999
 30
0.0
 11
205.3545105211
 21
178.75068843439999
 31
0.0
  0
LINE
  5
261
  8
0
  6
CONTINUOUS
 62
     7
 10
204.3525267245
 20
181.04314786879999
 30
0.0
 11
204.1025267245
 21
180.89881030149999
 31
0.0
  0
LINE
  5
262
  8
0
  6
CONTINUOUS
 62
     7
 10
173.90641571489999
 20
149.8154069892
 30
0.0
 11
173.90641571489999
 21
139.25363271340001
 31
0.0
  0
LINE
  5
263
  8
0
  6
CONTINUOUS
 62
     7
 10
197.55252672169999
 20
184.82068843440001
 30
0.0
 11
188.73838152409999
 21
184.82068843440001
 31
0.0
  0
LINE
  5
264
  8
0
  6
CONTINUOUS
 62
     7
 10
236.60233777639999
 20
142.18637807030001
 30
0.0
 11
236.60233777639999
 21
148.81395003009999
 31
0.0
  0
LINE
  5
265
  8
0
  6
CONTINUOUS
 62
     7
 10
204.1025267245
 20
180.89881030149999
 30
0.0
 11
204.1025267245
 21
176.39497816580001
 31
0.0
  0
LINE
  5
266
  8
0
  6
CONTINUOUS
 62
     7
 10
205.1025267245
 20
182.9452840893
 30
0.0
 11
205.1025267245
 21
182.24528408929999
 31
0.0
  0
LINE
  5
267
  8
0
  6
CONTINUOUS
 62
     7
 10
174.40641571489999
 20
148.81231111170001
 30
0.0
 11
174.40641571489999
 21
142.18762478049999
 31
0.0
  0
LINE
  5
268
  8
0
  6
CONTINUOUS
 62
     7
 10
196.80252672450001
 20
182.24528408929999
 30
0.0
 11
196.80252672450001
 21
182.9452840893
 31
0.0
  0
LINE
  5
269
  8
0
  6
CONTINUOUS
 62
     7
 10
215.71696000220001
 20
172.1899471445
 30
0.0
 11
216.21696000220001
 21
172.7428071571
 31
0.0
  0
LINE
  5
26A
  8
0
  6
CONTINUOUS
 62
     7
 10
204.3525267245
 20
183.21826176499999
 30
0.0
 11
205.1025267245
 21
182.9452840893
 31
0.0
  0
LINE
  5
26B
  8
0
  6
CONTINUOUS
 62
     7
 10
197.5525267189
 20
181.97230641460001
 30
0.0
 11
196.80252672450001
 21
182.24528408929999
 31
0.0
  0
LINE
  5
26C
  8
0
  6
CONTINUOUS
 62
     7
 10
174.40641571489999
 20
142.18762478049999
 30
0.0
 11
173.90641571489999
 21
142.03476443189999
 31
0.0
  0
LINE
  5
26D
  8
0
  6
CONTINUOUS
 62
     7
 10
215.71696000220001
 20
163.61217756760001
 30
0.0
 11
215.71696000220001
 21
172.1899471445
 31
0.0
  0
LINE
  5
26E
  8
0
  6
CONTINUOUS
 62
     7
 10
204.1025267245
 20
176.39497816580001
 30
0.0
 11
197.80252672450001
 21
176.39497816580001
 31
0.0
  0
LINE
  5
26F
  8
0
  6
CONTINUOUS
 62
     7
 10
236.60233777639999
 20
148.81395003009999
 30
0.0
 11
237.10233777639999
 21
149.01489940440001
 31
0.0
  0
LINE
  5
270
  8
0
  6
CONTINUOUS
 62
     7
 10
206.0835186173
 20
181.5373271602999
 30
0.0
 11
205.3545105211
 21
181.27198991079999
 31
0.0
  0
LINE
  5
271
  8
0
  6
CONTINUOUS
 62
     7
 10
205.3545105211
 20
177.63068843440001
 30
0.0
 11
205.3545105211
 21
181.27198991079999
 31
0.0
  0
LINE
  5
272
  8
0
  6
CONTINUOUS
 62
     7
 10
180.56177908719999
 20
125.32263693260001
 30
0.0
 11
179.5414528048
 21
125.3223568642
 31
0.0
  0
LINE
  5
273
  8
0
  6
CONTINUOUS
 62
     7
 10
186.32901782069999
 20
136.22227997580001
 30
0.0
 11
186.3290178268
 21
131.2226588186
 31
0.0
  0
LINE
  5
274
  8
0
  6
CONTINUOUS
 62
     7
 10
183.58168500560001
 20
129.22265753970001
 30
0.0
 11
183.16957051750001
 21
131.5598666404
 31
0.0
  0
LINE
  5
275
  8
0
  6
CONTINUOUS
 62
     7
 10
183.58168500560001
 20
129.22265753970001
 30
0.0
 11
184.4465145177
 21
129.22265753970001
 31
0.0
  0
LINE
  5
276
  8
0
  6
CONTINUOUS
 62
     7
 10
176.67630418120001
 20
125.32235652129999
 30
0.0
 11
179.5414528048
 21
125.3223568642
 31
0.0
  0
LINE
  5
277
  8
0
  6
CONTINUOUS
 62
     7
 10
218.7543767457
 20
131.74747220750001
 30
0.0
 11
218.7543767457
 21
129.6389909463
 31
0.0
  0
LINE
  5
278
  8
0
  6
CONTINUOUS
 62
     7
 10
218.7543767457
 20
131.74747220750001
 30
0.0
 11
217.5148809964
 21
131.4153503224
 31
0.0
  0
LINE
  5
279
  8
0
  6
CONTINUOUS
 62
     7
 10
217.35437674569999
 20
131.4153503224
 30
0.0
 11
217.15451004920001
 21
131.62265457110001
 31
0.0
  0
LINE
  5
27A
  8
0
  6
CONTINUOUS
 62
     7
 10
217.5148809964
 20
131.4153503224
 30
0.0
 11
217.35437674569999
 21
131.4153503224
 31
0.0
  0
LINE
  5
27B
  8
0
  6
CONTINUOUS
 62
     7
 10
186.6818230431
 20
131.2226588186
 30
0.0
 11
186.3290178268
 21
131.2226588186
 31
0.0
  0
LINE
  5
27C
  8
0
  6
CONTINUOUS
 62
     7
 10
186.6818230431
 20
131.2226588186
 30
0.0
 11
188.78180295940001
 21
131.6226549937
 31
0.0
  0
LINE
  5
27D
  8
0
  6
CONTINUOUS
 62
     7
 10
178.67630426689999
 20
124.8223572071
 30
0.0
 11
178.6763040955
 21
125.3223568642
 31
0.0
  0
LINE
  5
27E
  8
0
  6
CONTINUOUS
 62
     7
 10
196.3693318185
 20
177.63068843440001
 30
0.0
 11
196.3693318185
 21
181.33877636849999
 31
0.0
  0
LINE
  5
27F
  8
0
  6
CONTINUOUS
 62
     7
 10
205.53770542149999
 20
181.33866740209999
 30
0.0
 11
205.53770542149999
 21
177.63068843440001
 31
0.0
  0
LINE
  5
280
  8
0
  6
CONTINUOUS
 62
     7
 10
185.0339248997
 20
132.154990567
 30
0.0
 11
185.03392480420001
 21
131.1708280988
 31
0.0
  0
LINE
  5
281
  8
0
  6
CONTINUOUS
 62
     7
 10
186.32901783290001
 20
133.36219684540001
 30
0.0
 11
185.64824923929999
 21
133.07762489640001
 31
0.0
  0
LINE
  5
282
  8
0
  6
CONTINUOUS
 62
     7
 10
185.3339248042
 20
130.8708280697
 30
0.0
 11
191.10729892789999
 21
130.8708280697
 31
0.0
  0
LINE
  5
283
  8
0
  6
CONTINUOUS
 62
     7
 10
210.3930487161
 20
130.87082781940001
 30
0.0
 11
216.16642270630001
 21
130.87082781940001
 31
0.0
  0
LINE
  5
284
  8
0
  6
CONTINUOUS
 62
     7
 10
216.46642270629999
 20
131.1708278314
 30
0.0
 11
216.46642266999999
 21
131.62265445369999
 31
0.0
  0
LINE
  5
285
  8
0
  6
CONTINUOUS
 62
     7
 10
215.75686624799999
 20
127.8979306729
 30
0.0
 11
216.48807455619999
 21
127.16539335509999
 31
0.0
  0
LINE
  5
286
  8
0
  6
CONTINUOUS
 62
     7
 10
218.0150349708
 20
129.92795711380001
 30
0.0
 11
215.86074132830001
 21
128.68417574
 31
0.0
  0
LINE
  5
287
  8
0
  6
CONTINUOUS
 62
     7
 10
218.31511085279999
 20
131.62977126620001
 30
0.0
 11
218.0150349708
 21
129.92795711380001
 31
0.0
  0
LINE
  5
288
  8
0
  6
CONTINUOUS
 62
     7
 10
217.09194940969999
 20
127.0856114868
 30
0.0
 11
219.01503582570001
 21
128.19590511109999
 31
0.0
  0
LINE
  5
289
  8
0
  6
CONTINUOUS
 62
     7
 10
183.81512663669989
 20
130.8218431613
 30
0.0
 11
183.81512809789999
 21
132.29337253529999
 31
0.0
  0
LINE
  5
28A
  8
0
  6
CONTINUOUS
 62
     7
 10
184.03745040640001
 20
129.51723739709999
 30
0.0
 11
183.82272216320001
 21
130.73501887149999
 31
0.0
  0
LINE
  5
28B
  8
0
  6
CONTINUOUS
 62
     7
 10
179.1763040955
 20
125.3223569499
 30
0.0
 11
179.17630418120001
 21
124.8223568642
 31
0.0
  0
LINE
  5
28C
  8
0
  6
CONTINUOUS
 62
     7
 10
178.67630426689999
 20
124.82235677849999
 30
0.0
 11
179.54152143690001
 21
124.8223568642
 31
0.0
  0
LINE
  5
28D
  8
0
  6
CONTINUOUS
 62
     7
 10
185.0012350797
 20
129.72265753970001
 30
0.0
 11
184.00123491580001
 21
129.72265753970001
 31
0.0
  0
LINE
  5
28E
  8
0
  6
CONTINUOUS
 62
     7
 10
179.5415215031
 20
124.8223568642
 30
0.0
 11
180.60212194010001
 21
124.8226479874
 31
0.0
  0
LINE
  5
28F
  8
0
  6
CONTINUOUS
 62
     7
 10
217.6061405547
 20
130.9221651572
 30
0.0
 11
218.21931102650001
 21
131.08646368999999
 31
0.0
  0
LINE
  5
290
  8
0
  6
CONTINUOUS
 62
     7
 10
217.35437674569999
 20
130.9153503224
 30
0.0
 11
217.55437674570001
 21
130.9153503224
 31
0.0
  0
LINE
  5
291
  8
0
  6
CONTINUOUS
 62
     7
 10
216.46252965580001
 20
131.12265444030001
 30
0.0
 11
217.1545101655
 21
131.12265444030001
 31
0.0
  0
LINE
  5
292
  8
0
  6
CONTINUOUS
 62
     7
 10
216.4600233399
 20
129.38839349669999
 30
0.0
 11
216.4600233399
 21
129.03017119250001
 31
0.0
  0
LINE
  5
293
  8
0
  6
CONTINUOUS
 62
     7
 10
218.02069183250001
 20
129.96003875650001
 30
0.0
 11
216.6082595309
 21
129.581578662
 31
0.0
  0
LINE
  5
294
  8
0
  6
CONTINUOUS
 62
     7
 10
185.82901772790001
 20
133.1531889597
 30
0.0
 11
185.82901757580001
 21
136.22228000219999
 31
0.0
  0
LINE
  5
295
  8
0
  6
CONTINUOUS
 62
     7
 10
186.12901783369989
 20
130.7226588186
 30
0.0
 11
186.7290178339
 21
130.7226588186
 31
0.0
  0
LINE
  5
296
  8
0
  6
CONTINUOUS
 62
     7
 10
186.7290178339
 20
130.7226588186
 30
0.0
 11
187.50690640100001
 21
130.8708280697
 31
0.0
  0
LINE
  5
297
  8
0
  6
CONTINUOUS
 62
     7
 10
218.85110782309999
 20
128.10126118630001
 30
0.0
 11
219.06109350349999
 21
128.036123503
 31
0.0
  0
LINE
  5
298
  8
0
  6
CONTINUOUS
 62
     7
 10
198.4142480502
 20
176.39497816580001
 30
0.0
 11
198.4142480502
 21
177.14958178469999
 31
0.0
  0
LINE
  5
299
  8
0
  6
CONTINUOUS
 62
     7
 10
203.49278918979999
 20
176.39497816580001
 30
0.0
 11
203.49278918979999
 21
177.14958178469999
 31
0.0
  0
LINE
  5
29A
  8
0
  6
CONTINUOUS
 62
     7
 10
204.1025267245
 20
177.14958178469999
 30
0.0
 11
197.80252672450001
 21
177.14958178469999
 31
0.0
  0
LINE
  5
29B
  8
0
  6
CONTINUOUS
 62
     7
 10
198.90332331779999
 20
176.39497816580001
 30
0.0
 11
198.90332331779999
 21
177.14958178469999
 31
0.0
  0
LINE
  5
29C
  8
0
  6
CONTINUOUS
 62
     7
 10
203.00371392229999
 20
176.39497816580001
 30
0.0
 11
203.00371392229999
 21
177.14958178469999
 31
0.0
  0
LINE
  5
29D
  8
0
  6
CONTINUOUS
 62
     7
 10
202.71899892799999
 20
177.14958178469999
 30
0.0
 11
202.71899892799999
 21
176.39497816580001
 31
0.0
  0
LINE
  5
29E
  8
0
  6
CONTINUOUS
 62
     7
 10
199.18824640400001
 20
176.39497816580001
 30
0.0
 11
199.18824640400001
 21
177.14958178469999
 31
0.0
  0
LINE
  5
29F
  8
0
  6
CONTINUOUS
 62
     7
 10
202.28312653500001
 20
177.14958178469999
 30
0.0
 11
202.28312653500001
 21
176.39497816580001
 31
0.0
  0
LINE
  5
2A0
  8
0
  6
CONTINUOUS
 62
     7
 10
199.62421008769999
 20
177.14958178469999
 30
0.0
 11
199.62421008769999
 21
176.39497816580001
 31
0.0
  0
LINE
  5
2A1
  8
0
  6
CONTINUOUS
 62
     7
 10
186.30387331270001
 20
175.19161591049999
 30
0.0
 11
185.8765496531
 21
174.0175538048
 31
0.0
  0
LINE
  5
2A2
  8
0
  6
CONTINUOUS
 62
     7
 10
189.48418651270001
 20
183.9294546143
 30
0.0
 11
189.0568628531
 21
182.75539250860001
 31
0.0
  0
LINE
  5
2A3
  8
0
  6
CONTINUOUS
 62
     7
 10
177.6920783475
 20
160.0581692332
 30
0.0
 11
177.3687070382
 21
158.85133107729999
 31
0.0
  0
LINE
  5
2A4
  8
0
  6
CONTINUOUS
 62
     7
 10
233.31667514380001
 20
160.0581692332
 30
0.0
 11
233.64004645310001
 21
158.85133107729999
 31
0.0
  0
LINE
  5
2A5
  8
0
  6
CONTINUOUS
 62
     7
 10
234.11889458580001
 20
157.0642455169
 30
0.0
 11
234.44226589499999
 21
155.8574073611
 31
0.0
  0
LINE
  5
2A6
  8
0
  6
CONTINUOUS
 62
     7
 10
213.91199503819999
 20
179.8427796073
 30
0.0
 11
213.48467137860001
 21
181.01684171299999
 31
0.0
  0
LINE
  5
2A7
  8
0
  6
CONTINUOUS
 62
     7
 10
176.0876394636
 20
154.07032180069999
 30
0.0
 11
175.7642681543
 21
152.86348364489999
 31
0.0
  0
LINE
  5
2A8
  8
0
  6
CONTINUOUS
 62
     7
 10
212.85189063819999
 20
182.75539250860001
 30
0.0
 11
212.42456697860001
 21
183.9294546143
 31
0.0
  0
LINE
  5
2A9
  8
0
  6
CONTINUOUS
 62
     7
 10
188.42408211270001
 20
181.01684171299999
 30
0.0
 11
187.9967584531
 21
179.8427796073
 31
0.0
  0
LINE
  5
2AA
  8
0
  6
CONTINUOUS
 62
     7
 10
235.72333346970001
 20
151.0763980845
 30
0.0
 11
236.04670477900001
 21
149.86955992860001
 31
0.0
  0
LINE
  5
2AB
  8
0
  6
CONTINUOUS
 62
     7
 10
187.36397771270001
 20
178.10422881170001
 30
0.0
 11
186.9366540531
 21
176.93016670610001
 31
0.0
  0
LINE
  5
2AC
  8
0
  6
CONTINUOUS
 62
     7
 10
234.92111402770001
 20
154.07032180069999
 30
0.0
 11
235.24448533699999
 21
152.86348364489999
 31
0.0
  0
LINE
  5
2AD
  8
0
  6
CONTINUOUS
 62
     7
 10
175.2854200216
 20
151.0763980845
 30
0.0
 11
174.96204871239999
 21
149.86955992860001
 31
0.0
  0
LINE
  5
2AE
  8
0
  6
CONTINUOUS
 62
     7
 10
214.97209943819999
 20
176.93016670610001
 30
0.0
 11
214.54477577860001
 21
178.10422881170001
 31
0.0
  0
LINE
  5
2AF
  8
0
  6
CONTINUOUS
 62
     7
 10
216.03220383819999
 20
174.0175538048
 30
0.0
 11
215.60488017860001
 21
175.19161591049999
 31
0.0
  0
LINE
  5
2B0
  8
0
  6
CONTINUOUS
 62
     7
 10
176.88985890550001
 20
157.0642455169
 30
0.0
 11
176.56648759629999
 21
155.8574073611
 31
0.0
  0
LINE
  5
2B1
  8
0
  6
CONTINUOUS
 62
     7
 10
216.21696000220001
 20
163.487021043
 30
0.0
 11
216.21696000220001
 21
172.7317499753
 31
0.0
  0
LINE
  5
2B2
  8
0
  6
CONTINUOUS
 62
     7
 10
237.10233777639999
 20
142.03476443189999
 30
0.0
 11
237.10233777639999
 21
149.01326048600001
 31
0.0
  0
ARC
  5
2B3
  8
0
  6
CONTINUOUS
 62
     7
 10
213.0457616269
 20
180.7773459304
 30
0.0
 40
0.4999999999999351
 50
28.619560249100001
 51
110.64715392239999
  0
ARC
  5
2B4
  8
0
  6
CONTINUOUS
 62
     7
 10
213.42182574029999
 20
179.7441182707
 30
0.0
 40
0.4999999999998498
 50
289.3528460774001
 51
11.380439750500001
  0
ARC
  5
2B5
  8
0
  6
CONTINUOUS
 62
     7
 10
214.1058660269
 20
177.86473302909999
 30
0.0
 40
0.4999999999998602
 50
28.619560249100001
 51
110.6471539225
  0
ARC
  5
2B6
  8
0
  6
CONTINUOUS
 62
     7
 10
214.48193014029999
 20
176.83150536939999
 30
0.0
 40
0.4999999999998381
 50
289.35284607760002
 51
11.380439750900001
  0
ARC
  5
2B7
  8
0
  6
CONTINUOUS
 62
     7
 10
215.1659704269
 20
174.95212012779999
 30
0.0
 40
0.4999999999999132
 50
28.619560248999999
 51
110.6471539225
  0
ARC
  5
2B8
  8
0
  6
CONTINUOUS
 62
     7
 10
215.54203454029999
 20
173.91889246810001
 30
0.0
 40
0.5000000000002127
 50
289.35284607770001
 51
11.380439751200001
  0
ARC
  5
2B9
  8
0
  6
CONTINUOUS
 62
     7
 10
232.8585621435
 20
159.85783830970001
 30
0.0
 40
0.4999999999998302
 50
23.619560248999999
 51
105.64715392239999
  0
ARC
  5
2BA
  8
0
  6
CONTINUOUS
 62
     7
 10
233.14314349520001
 20
158.795766246
 30
0.0
 40
0.4999999999999107
 50
284.35284607759991
 51
6.380439750899999
  0
ARC
  5
2BB
  8
0
  6
CONTINUOUS
 62
     7
 10
233.6607815854
 20
156.8639145935
 30
0.0
 40
0.5000000000001509
 50
23.619560248999999
 51
105.64715392239999
  0
ARC
  5
2BC
  8
0
  6
CONTINUOUS
 62
     7
 10
233.9453629372
 20
155.80184252980001
 30
0.0
 40
0.4999999999999338
 50
284.35284607749998
 51
6.380439750899999
  0
ARC
  5
2BD
  8
0
  6
CONTINUOUS
 62
     7
 10
234.4630010274
 20
153.8699908772
 30
0.0
 40
0.5000000000000093
 50
23.619560249100001
 51
105.64715392239999
  0
ARC
  5
2BE
  8
0
  6
CONTINUOUS
 62
     7
 10
234.74758237910001
 20
152.8079188136
 30
0.0
 40
0.499999999999914
 50
284.35284607739999
 51
6.380439750499999
  0
ARC
  5
2BF
  8
0
  6
CONTINUOUS
 62
     7
 10
235.2652204693
 20
150.87606716100001
 30
0.0
 40
0.5000000000000076
 50
23.619560249100001
 51
105.64715392239999
  0
ARC
  5
2C0
  8
0
  6
CONTINUOUS
 62
     7
 10
235.5498018211
 20
149.81399509740001
 30
0.0
 40
0.4999999999998924
 50
284.35284607749998
 51
6.380439750899999
  0
ARC
  5
2C1
  8
0
  6
CONTINUOUS
 62
     7
 10
234.10233777639999
 20
137.0249800217
 30
0.0
 40
3.0000000000009659
 50
270.0
 51
360.0
  0
ARC
  5
2C2
  8
0
  6
CONTINUOUS
 62
     7
 10
228.8172070562
 20
132.0249800217
 30
0.0
 40
1.9999999999999429
 50
90.0
 51
165.0
  0
ARC
  5
2C3
  8
0
  6
CONTINUOUS
 62
     7
 10
224.9543767456
 20
129.19981095700001
 30
0.0
 40
0.9999999999999539
 50
283.0
 51
345.0
  0
ARC
  5
2C4
  8
0
  6
CONTINUOUS
 62
     7
 10
221.612491116
 20
129.02265444029999
 30
0.0
 40
1.000000000000113
 50
210.0
 51
270.0
  0
ARC
  5
2C5
  8
0
  6
CONTINUOUS
 62
     7
 10
184.7416973933
 20
136.22228039020001
 30
0.0
 40
1.5873204274703561
 50
359.9999850433
 51
180.00001497869999
  0
ARC
  5
2C6
  8
0
  6
CONTINUOUS
 62
     7
 10
184.15469045489999
 20
131.73355339279999
 30
0.0
 40
1.000314140250794
 50
180.00221549939999
 51
189.9990708606999
  0
ARC
  5
2C7
  8
0
  6
CONTINUOUS
 62
     7
 10
179.7868447445
 20
129.97929949339999
 30
0.0
 40
4.7207022190556991
 50
279.4482421381
 51
350.7767552752
  0
ARC
  5
2C8
  8
0
  6
CONTINUOUS
 62
     7
 10
174.0745266614
 20
125.8223568642
 30
0.0
 40
1.000000000000085
 50
180.0
 51
270.0
  0
ARC
  5
2C9
  8
0
  6
CONTINUOUS
 62
     7
 10
173.67452666139999
 20
128.22235686420001
 30
0.0
 40
0.5999999999989713
 50
89.999999999899998
 51
180.0000000002
  0
ARC
  5
2CA
  8
0
  6
CONTINUOUS
 62
     7
 10
173.97452666140001
 20
128.22235686420001
 30
0.0
 40
0.5999999999998711
 50
12.1272210998
 51
90.0
  0
ARC
  5
2CB
  8
0
  6
CONTINUOUS
 62
     7
 10
174.1691288113
 20
130.3157010667
 30
0.0
 40
2.0059704193497558
 50
281.269295774
 51
311.61795461129998
  0
ARC
  5
2CC
  8
0
  6
CONTINUOUS
 62
     7
 10
160.5014151588
 20
129.6135899699
 30
0.0
 40
14.99999999999787
 50
360.0
 51
11.093285038199999
  0
ARC
  5
2CD
  8
0
  6
CONTINUOUS
 62
     7
 10
174.40641571489999
 20
139.25363271340001
 30
0.0
 40
0.5000000000010548
 50
180.0
 51
191.09328503809999
  0
ARC
  5
2CE
  8
0
  6
CONTINUOUS
 62
     7
 10
175.45895167020001
 20
149.81399509740001
 30
0.0
 40
0.4999999999997792
 50
173.6195602491
 51
255.6471539225
  0
ARC
  5
2CF
  8
0
  6
CONTINUOUS
 62
     7
 10
175.74353302200001
 20
150.87606716100001
 30
0.0
 40
0.4999999999999928
 50
74.352846077600006
 51
156.3804397509
  0
ARC
  5
2D0
  8
0
  6
CONTINUOUS
 62
     7
 10
176.2611711122
 20
152.8079188136
 30
0.0
 40
0.4999999999999197
 50
173.6195602491
 51
255.6471539225
  0
ARC
  5
2D1
  8
0
  6
CONTINUOUS
 62
     7
 10
176.54575246389999
 20
153.8699908772
 30
0.0
 40
0.4999999999998975
 50
74.352846077699994
 51
156.3804397513
  0
ARC
  5
2D2
  8
0
  6
CONTINUOUS
 62
     7
 10
177.06339055410001
 20
155.80184252980001
 30
0.0
 40
0.4999999999998921
 50
173.6195602491
 51
255.6471539225
  0
ARC
  5
2D3
  8
0
  6
CONTINUOUS
 62
     7
 10
177.34797190590001
 20
156.8639145935
 30
0.0
 40
0.4999999999999411
 50
74.352846077600006
 51
156.3804397511
  0
ARC
  5
2D4
  8
0
  6
CONTINUOUS
 62
     7
 10
177.86560999610001
 20
158.795766246
 30
0.0
 40
0.4999999999999138
 50
173.6195602491
 51
255.6471539225
  0
ARC
  5
2D5
  8
0
  6
CONTINUOUS
 62
     7
 10
178.15019134790001
 20
159.85783830970001
 30
0.0
 40
0.500000000000031
 50
74.352846077799995
 51
156.38043975139999
  0
ARC
  5
2D6
  8
0
  6
CONTINUOUS
 62
     7
 10
186.366718951
 20
173.91889246810001
 30
0.0
 40
0.5000000000001468
 50
168.6195602491
 51
250.64715392240001
  0
ARC
  5
2D7
  8
0
  6
CONTINUOUS
 62
     7
 10
186.74278306439999
 20
174.95212012779999
 30
0.0
 40
0.4999999999998387
 50
69.352846077600006
 51
151.38043975119999
  0
ARC
  5
2D8
  8
0
  6
CONTINUOUS
 62
     7
 10
187.426823351
 20
176.83150536939999
 30
0.0
 40
0.4999999999999294
 50
168.6195602491
 51
250.64715392240001
  0
ARC
  5
2D9
  8
0
  6
CONTINUOUS
 62
     7
 10
187.80288746439999
 20
177.86473302909999
 30
0.0
 40
0.4999999999999189
 50
69.352846077600006
 51
151.38043975119999
  0
ARC
  5
2DA
  8
0
  6
CONTINUOUS
 62
     7
 10
188.486927751
 20
179.7441182707
 30
0.0
 40
0.5000000000001671
 50
168.6195602491
 51
250.64715392240001
  0
ARC
  5
2DB
  8
0
  6
CONTINUOUS
 62
     7
 10
188.86299186439999
 20
180.7773459304
 30
0.0
 40
0.4999999999998768
 50
69.352846077500004
 51
151.38043975080001
  0
ARC
  5
2DC
  8
0
  6
CONTINUOUS
 62
     7
 10
189.547032151
 20
182.65673117189999
 30
0.0
 40
0.5000000000001308
 50
168.61956024919999
 51
250.64715392240001
  0
ARC
  5
2DD
  8
0
  6
CONTINUOUS
 62
     7
 10
189.92309626439999
 20
183.68995883159999
 30
0.0
 40
0.4999999999998578
 50
69.352846077500004
 51
151.38043975100001
  0
ARC
  5
2DE
  8
0
  6
CONTINUOUS
 62
     7
 10
211.9856572269
 20
183.68995883159999
 30
0.0
 40
0.4999999999998306
 50
28.619560248900001
 51
110.64715392239999
  0
ARC
  5
2DF
  8
0
  6
CONTINUOUS
 62
     7
 10
212.36172134029999
 20
182.65673117189999
 30
0.0
 40
0.5000000000002095
 50
289.3528460773
 51
11.380439750000001
  0
ARC
  5
2E0
  8
0
  6
CONTINUOUS
 62
     7
 10
186.0339248997
 20
132.15499046990001
 30
0.0
 40
0.9999999999996919
 50
112.68569248999999
 51
179.99999443589999
  0
ARC
  5
2E1
  8
0
  6
CONTINUOUS
 62
     7
 10
191.10729892789999
 20
133.8708280697
 30
0.0
 40
2.999999999999921
 50
270.0
 51
311.46234344380002
  0
ARC
  5
2E2
  8
0
  6
CONTINUOUS
 62
     7
 10
185.3339248042
 20
131.17082806969989
 30
0.0
 40
0.2999999999999559
 50
179.99999443580001
 51
270.0
  0
ARC
  5
2E3
  8
0
  6
CONTINUOUS
 62
     7
 10
210.3930487161
 20
133.87082781940001
 30
0.0
 40
2.9999999999997611
 50
228.53765795070001
 51
270.0
  0
ARC
  5
2E4
  8
0
  6
CONTINUOUS
 62
     7
 10
216.16642270630001
 20
131.17082781939999
 30
0.0
 40
0.2999999999999263
 50
270.0
 51
0.0000023004
  0
ARC
  5
2E5
  8
0
  6
CONTINUOUS
 62
     7
 10
216.11074122380001
 20
128.25116262180001
 30
0.0
 40
0.5000003083031482
 50
119.99996578450001
 51
224.9478965358
  0
ARC
  5
2E6
  8
0
  6
CONTINUOUS
 62
     7
 10
218.0150349708
 20
129.92795711380001
 30
0.0
 40
2.0000014624374849
 50
300.00000409069997
 51
315.35993129920001
  0
ARC
  5
2E7
  8
0
  6
CONTINUOUS
 62
     7
 10
216.84195041850001
 20
127.5186282753
 30
0.0
 40
0.5000030347107951
 50
224.94806575679999
 51
299.99966574810003
  0
ARC
  5
2E8
  8
0
  6
CONTINUOUS
 62
     7
 10
190.31511594279999
 20
132.2933761765
 30
0.0
 40
6.4999878449367241
 50
131.40621246629999
 51
180.0000320963
  0
ARC
  5
2E9
  8
0
  6
CONTINUOUS
 62
     7
 10
184.31502515209999
 20
130.8218306965
 30
0.0
 40
0.4998985155669372
 50
179.99857134449999
 51
190.00062367390001
  0
ARC
  5
2EA
  8
0
  6
CONTINUOUS
 62
     7
 10
180.09821967799999
 20
128.82264307790001
 30
0.0
 40
4.0000000000228084
 50
5.739378671099999
 51
10.000023395099999
  0
ARC
  5
2EB
  8
0
  6
CONTINUOUS
 62
     7
 10
180.09821967799999
 20
128.82264307790001
 30
0.0
 40
4.0000000000000853
 50
276.39006968569998
 51
344.6596228480999
  0
ARC
  5
2EC
  8
0
  6
CONTINUOUS
 62
     7
 10
180.44323942930001
 20
125.74190268460001
 30
0.0
 40
0.9000000000000558
 50
207.78336747680001
 51
276.39006968569998
  0
ARC
  5
2ED
  8
0
  6
CONTINUOUS
 62
     7
 10
179.7868447445
 20
129.97929949339999
 30
0.0
 40
5.220702219055692
 50
278.98421571670002
 51
357.18228908510002
  0
ARC
  5
2EE
  8
0
  6
CONTINUOUS
 62
     7
 10
217.55437674570001
 20
131.11535032239999
 30
0.0
 40
0.2000000000010402
 50
270.0
 51
285.00000000009999
  0
ARC
  5
2EF
  8
0
  6
CONTINUOUS
 62
     7
 10
217.35437674569999
 20
131.11535032239999
 30
0.0
 40
0.2000000000000455
 50
177.90705894600001
 51
270.0
  0
ARC
  5
2F0
  8
0
  6
CONTINUOUS
 62
     7
 10
216.66002333989999
 20
129.38839349669999
 30
0.0
 40
0.2000000000000739
 50
105.0
 51
180.0
  0
ARC
  5
2F1
  8
0
  6
CONTINUOUS
 62
     7
 10
184.7417010142
 20
136.2222814077
 30
0.0
 40
1.087316561533844
 50
359.99992593820002
 51
33.3316093651
  0
ARC
  5
2F2
  8
0
  6
CONTINUOUS
 62
     7
 10
186.12901783340001
 20
131.02265881860001
 30
0.0
 40
0.3000000000000398
 50
210.40456591270001
 51
270.00000004809999
  0
ARC
  5
2F3
  8
0
  6
CONTINUOUS
 62
     7
 10
219.14997557109999
 20
128.3226544403
 30
0.0
 40
0.3000000000003876
 50
252.7660787401
 51
270.0
  0
ARC
  5
2F4
  8
0
  6
CONTINUOUS
 62
     7
 10
174.1691288113
 20
130.3157010667
 30
0.0
 40
1.5059704193490751
 50
266.80237710540001
 51
332.21089763139997
  0
CIRCLE
  5
485
  8
0
  6
CONTINUOUS
 62
     7
 10
208.46772789490001
 20
97.283018712589922
 30
0.0
 40
1.9249753208292451
  0
CIRCLE
  5
486
  8
0
  6
CONTINUOUS
 62
     7
 10
193.43732555400001
 20
97.283018712589922
 30
0.0
 40
1.9249753208292339
  0
LINE
  5
487
  8
0
  6
CONTINUOUS
 62
     7
 10
213.1697926937
 20
100.0830187125899
 30
0.0
 11
213.1697926937
 21
95.083018712589904
 31
0.0
  0
LINE
  5
488
  8
0
  6
CONTINUOUS
 62
     7
 10
204.3525267245
 20
95.083018712589904
 30
0.0
 11
204.3525267245
 21
99.583018712589904
 31
0.0
  0
LINE
  5
489
  8
0
  6
CONTINUOUS
 62
     7
 10
205.5835186173
 20
100.0830187125899
 30
0.0
 11
205.5835186173
 21
99.583018712589904
 31
0.0
  0
LINE
  5
48A
  8
0
  6
CONTINUOUS
 62
     7
 10
213.2582300565
 20
100.0830187125899
 30
0.0
 11
213.2582300565
 21
95.083018712589904
 31
0.0
  0
LINE
  5
48B
  8
0
  6
CONTINUOUS
 62
     7
 10
205.5835186173
 20
99.583018712589904
 30
0.0
 11
196.32351862280001
 21
99.583018712589904
 31
0.0
  0
LINE
  5
48C
  8
0
  6
CONTINUOUS
 62
     7
 10
188.73838152409999
 20
95.083018712589904
 30
0.0
 11
188.73838152409999
 21
100.0830187125899
 31
0.0
  0
LINE
  5
48D
  8
0
  6
CONTINUOUS
 62
     7
 10
196.32351862280001
 20
100.0830187125899
 30
0.0
 11
196.32351862280001
 21
99.583018712589904
 31
0.0
  0
LINE
  5
48E
  8
0
  6
CONTINUOUS
 62
     7
 10
197.5525267189
 20
99.583018712589904
 30
0.0
 11
197.55252672169999
 21
95.083018712589904
 31
0.0
  0
LINE
  5
48F
  8
0
  6
CONTINUOUS
 62
     7
 10
188.65052343479999
 20
95.083018712589904
 30
0.0
 11
188.65052343479999
 21
100.0830187125899
 31
0.0
  0
LINE
  5
490
  8
0
  6
CONTINUOUS
 62
     7
 10
188.00052711820001
 20
100.0830187125899
 30
0.0
 11
188.00052711820001
 21
95.083018712589904
 31
0.0
  0
LINE
  5
491
  8
0
  6
CONTINUOUS
 62
     7
 10
187.59041903479999
 20
100.0830187125899
 30
0.0
 11
187.59041903479999
 21
95.083018712589904
 31
0.0
  0
LINE
  5
492
  8
0
  6
CONTINUOUS
 62
     7
 10
214.3183344565
 20
95.083018712589904
 30
0.0
 11
214.3183344565
 21
100.0830187125899
 31
0.0
  0
LINE
  5
493
  8
0
  6
CONTINUOUS
 62
     7
 10
213.90822637310001
 20
100.0830187125899
 30
0.0
 11
213.90822637310001
 21
95.083018712589904
 31
0.0
  0
LINE
  5
494
  8
0
  6
CONTINUOUS
 62
     7
 10
197.80252672450001
 20
95.083018712589904
 30
0.0
 11
197.80252672450001
 21
99.583018712589904
 31
0.0
  0
LINE
  5
495
  8
0
  6
CONTINUOUS
 62
     7
 10
204.1025267245
 20
99.583018712589904
 30
0.0
 11
204.1025267245
 21
95.083018712589904
 31
0.0
  0
LINE
  5
496
  8
0
  6
CONTINUOUS
 62
     7
 10
186.94042271820001
 20
100.0830187125899
 30
0.0
 11
186.94042271820001
 21
95.083018712589904
 31
0.0
  0
LINE
  5
497
  8
0
  6
CONTINUOUS
 62
     7
 10
186.53031463479999
 20
100.0830187125899
 30
0.0
 11
186.53031463479999
 21
95.083018712589904
 31
0.0
  0
LINE
  5
498
  8
0
  6
CONTINUOUS
 62
     7
 10
215.3784388565
 20
95.083018712589904
 30
0.0
 11
215.3784388565
 21
100.0830187125899
 31
0.0
  0
LINE
  5
499
  8
0
  6
CONTINUOUS
 62
     7
 10
214.96833077310001
 20
100.0830187125899
 30
0.0
 11
214.96833077310001
 21
95.083018712589904
 31
0.0
  0
LINE
  5
49A
  8
0
  6
CONTINUOUS
 62
     7
 10
204.1025267245
 20
99.083018712589904
 30
0.0
 11
203.49278918979999
 21
99.083018712589904
 31
0.0
  0
LINE
  5
49B
  8
0
  6
CONTINUOUS
 62
     7
 10
203.00371392229999
 20
99.210777127589907
 30
0.0
 11
202.71899892799999
 21
99.370419896689896
 31
0.0
  0
LINE
  5
49C
  8
0
  6
CONTINUOUS
 62
     7
 10
199.18824640400001
 20
99.370536576089904
 30
0.0
 11
198.90332331779999
 21
99.210777127589907
 31
0.0
  0
LINE
  5
49D
  8
0
  6
CONTINUOUS
 62
     7
 10
198.4142480502
 20
99.083018712589904
 30
0.0
 11
197.80252672450001
 21
99.083018712589904
 31
0.0
  0
LINE
  5
49E
  8
0
  6
CONTINUOUS
 62
     7
 10
185.88031831820001
 20
100.0830187125899
 30
0.0
 11
185.88031831820001
 21
95.083018712589904
 31
0.0
  0
LINE
  5
49F
  8
0
  6
CONTINUOUS
 62
     7
 10
185.47021023479999
 20
100.0830187125899
 30
0.0
 11
185.47021023479999
 21
95.083018712589904
 31
0.0
  0
LINE
  5
4A0
  8
0
  6
CONTINUOUS
 62
     7
 10
216.4385432565
 20
95.083018712589904
 30
0.0
 11
216.4385432565
 21
100.0830187125899
 31
0.0
  0
LINE
  5
4A1
  8
0
  6
CONTINUOUS
 62
     7
 10
216.02843517310001
 20
100.0830187125899
 30
0.0
 11
216.02843517310001
 21
95.083018712589904
 31
0.0
  0
LINE
  5
4A2
  8
0
  6
CONTINUOUS
 62
     7
 10
217.08853957310001
 20
95.083018712589904
 30
0.0
 11
217.08853957310001
 21
100.0830187125899
 31
0.0
  0
LINE
  5
4A3
  8
0
  6
CONTINUOUS
 62
     7
 10
217.1758575451
 20
95.083018712589904
 30
0.0
 11
217.1758575451
 21
100.0830187125899
 31
0.0
  0
LINE
  5
4A4
  8
0
  6
CONTINUOUS
 62
     7
 10
184.82021391820001
 20
100.0830187125899
 30
0.0
 11
184.82021391820001
 21
95.083018712589904
 31
0.0
  0
LINE
  5
4A5
  8
0
  6
CONTINUOUS
 62
     7
 10
184.73289594619999
 20
100.0830187125899
 30
0.0
 11
184.73289594619999
 21
95.083018712589904
 31
0.0
  0
LINE
  5
4A6
  8
0
  6
CONTINUOUS
 62
     7
 10
178.2081102775
 20
99.207994033389909
 30
0.0
 11
178.2081102775
 21
95.358043391789906
 31
0.0
  0
LINE
  5
4A7
  8
0
  6
CONTINUOUS
 62
     7
 10
178.2081102775
 20
95.358043391789906
 30
0.0
 11
182.03279348909999
 21
95.358043391789906
 31
0.0
  0
LINE
  5
4A8
  8
0
  6
CONTINUOUS
 62
     7
 10
182.03279348909999
 20
99.207994033389909
 30
0.0
 11
178.2081102775
 21
99.207994033389909
 31
0.0
  0
LINE
  5
4A9
  8
0
  6
CONTINUOUS
 62
     7
 10
177.10061803470001
 20
95.083018712589904
 30
0.0
 11
177.10061803470001
 21
100.0830187125899
 31
0.0
  0
LINE
  5
4AA
  8
0
  6
CONTINUOUS
 62
     7
 10
178.65831229969999
 20
95.358043391789906
 30
0.0
 11
178.65831229969999
 21
99.207994033389909
 31
0.0
  0
LINE
  5
4AB
  8
0
  6
CONTINUOUS
 62
     7
 10
232.35246333800001
 20
99.207994033389909
 30
0.0
 11
232.35246333800001
 21
95.358043391789906
 31
0.0
  0
LINE
  5
4AC
  8
0
  6
CONTINUOUS
 62
     7
 10
232.8046573732
 20
95.358043391789906
 30
0.0
 11
232.8046573732
 21
99.207994033389909
 31
0.0
  0
LINE
  5
4AD
  8
0
  6
CONTINUOUS
 62
     7
 10
233.90813545660001
 20
100.0830187125899
 30
0.0
 11
233.90813545660001
 21
95.083018712589904
 31
0.0
  0
LINE
  5
4AE
  8
0
  6
CONTINUOUS
 62
     7
 10
223.96696000220001
 20
100.0830187125899
 30
0.0
 11
223.96696000220001
 21
95.083018712589904
 31
0.0
  0
LINE
  5
4AF
  8
0
  6
CONTINUOUS
 62
     7
 10
232.8046573732
 20
99.207994033389909
 30
0.0
 11
228.9759600022
 21
99.207994033389909
 31
0.0
  0
LINE
  5
4B0
  8
0
  6
CONTINUOUS
 62
     7
 10
228.9759600022
 20
95.358043391789906
 30
0.0
 11
232.8046573732
 21
95.358043391789906
 31
0.0
  0
LINE
  5
4B1
  8
0
  6
CONTINUOUS
 62
     7
 10
237.10233777639999
 20
95.083018712589904
 30
0.0
 11
173.0745266614
 21
95.083018712589904
 31
0.0
  0
LINE
  5
4B2
  8
0
  6
CONTINUOUS
 62
     7
 10
237.10233777639999
 20
100.0830187125899
 30
0.0
 11
173.0745266614
 21
100.0830187125899
 31
0.0
  0
LINE
  5
4B3
  8
0
  6
CONTINUOUS
 62
     7
 10
217.6669600022
 20
95.083018712589904
 30
0.0
 11
217.6669600022
 21
100.0830187125899
 31
0.0
  0
LINE
  5
4B4
  8
0
  6
CONTINUOUS
 62
     7
 10
176.8049498243
 20
95.083018712589904
 30
0.0
 11
176.8049498243
 21
100.0830187125899
 31
0.0
  0
LINE
  5
4B5
  8
0
  6
CONTINUOUS
 62
     7
 10
234.20380366699999
 20
100.0830187125899
 30
0.0
 11
234.20380366699999
 21
95.083018712589904
 31
0.0
  0
LINE
  5
4B6
  8
0
  6
CONTINUOUS
 62
     7
 10
234.69567945049999
 20
100.0830187125899
 30
0.0
 11
234.69567945049999
 21
95.083018712589904
 31
0.0
  0
LINE
  5
4B7
  8
0
  6
CONTINUOUS
 62
     7
 10
176.31307404079999
 20
100.0830187125899
 30
0.0
 11
176.31307404079999
 21
95.083018712589904
 31
0.0
  0
LINE
  5
4B8
  8
0
  6
CONTINUOUS
 62
     7
 10
235.00602310900001
 20
95.083018712589904
 30
0.0
 11
235.00602310900001
 21
100.0830187125899
 31
0.0
  0
LINE
  5
4B9
  8
0
  6
CONTINUOUS
 62
     7
 10
176.00273038239999
 20
100.0830187125899
 30
0.0
 11
176.00273038239999
 21
95.083018712589904
 31
0.0
  0
LINE
  5
4BA
  8
0
  6
CONTINUOUS
 62
     7
 10
235.49789889249999
 20
100.0830187125899
 30
0.0
 11
235.49789889249999
 21
95.083018712589904
 31
0.0
  0
LINE
  5
4BB
  8
0
  6
CONTINUOUS
 62
     7
 10
175.51085459879999
 20
100.0830187125899
 30
0.0
 11
175.51085459879999
 21
95.083018712589904
 31
0.0
  0
LINE
  5
4BC
  8
0
  6
CONTINUOUS
 62
     7
 10
235.80824255089999
 20
95.083018712589904
 30
0.0
 11
235.80824255089999
 21
100.0830187125899
 31
0.0
  0
LINE
  5
4BD
  8
0
  6
CONTINUOUS
 62
     7
 10
175.20051094039999
 20
100.0830187125899
 30
0.0
 11
175.20051094039999
 21
95.083018712589904
 31
0.0
  0
LINE
  5
4BE
  8
0
  6
CONTINUOUS
 62
     7
 10
217.66793186749999
 20
99.260909385689885
 30
0.0
 11
217.6669600022
 21
99.260741406189908
 31
0.0
  0
LINE
  5
4BF
  8
0
  6
CONTINUOUS
 62
     7
 10
217.66793186749999
 20
95.083018712589904
 30
0.0
 11
217.66793186749999
 21
99.260909385689885
 31
0.0
  0
LINE
  5
4C0
  8
0
  6
CONTINUOUS
 62
     7
 10
236.30011833450001
 20
100.0830187125899
 30
0.0
 11
236.30011833450001
 21
95.083018712589904
 31
0.0
  0
LINE
  5
4C1
  8
0
  6
CONTINUOUS
 62
     7
 10
174.7086351568
 20
100.0830187125899
 30
0.0
 11
174.7086351568
 21
95.083018712589904
 31
0.0
  0
LINE
  5
4C2
  8
0
  6
CONTINUOUS
 62
     7
 10
236.61046199290001
 20
95.083018712589904
 30
0.0
 11
236.61046199290001
 21
100.0830187125899
 31
0.0
  0
LINE
  5
4C3
  8
0
  6
CONTINUOUS
 62
     7
 10
174.3982914984
 20
100.0830187125899
 30
0.0
 11
174.3982914984
 21
95.083018712589904
 31
0.0
  0
LINE
  5
4C4
  8
0
  6
CONTINUOUS
 62
     7
 10
237.10233777639999
 20
95.083018712589904
 30
0.0
 11
237.10233777639999
 21
100.0830187125899
 31
0.0
  0
LINE
  5
4C5
  8
0
  6
CONTINUOUS
 62
     7
 10
173.90641571489999
 20
100.0830187125899
 30
0.0
 11
173.90641571489999
 21
95.083018712589904
 31
0.0
  0
LINE
  5
4C6
  8
0
  6
CONTINUOUS
 62
     7
 10
173.67452666139999
 20
95.083018712589904
 30
0.0
 11
173.67452666139999
 21
100.0830187125899
 31
0.0
  0
LINE
  5
4C7
  8
0
  6
CONTINUOUS
 62
     7
 10
173.0745266614
 20
100.0830187125899
 30
0.0
 11
173.0745266614
 21
95.083018712589904
 31
0.0
  0
ARC
  5
4C8
  8
0
  6
CONTINUOUS
 62
     7
 10
203.49278918979999
 20
100.0830187125899
 30
0.0
 40
1.000000000000111
 50
240.7201802993998
 51
270.0
  0
ARC
  5
4C9
  8
0
  6
CONTINUOUS
 62
     7
 10
202.22992366049999
 20
98.498178311689912
 30
0.0
 40
0.9999999999996326
 50
60.72018029939975
 51
86.950259939399416
  0
ARC
  5
4CA
  8
0
  6
CONTINUOUS
 62
     7
 10
200.95252672449999
 20
74.52225968768991
 30
0.0
 40
25.009923298408349
 50
86.950259939399416
 51
93.044502082100337
  0
ARC
  5
4CB
  8
0
  6
CONTINUOUS
 62
     7
 10
199.67732167150001
 20
98.498294991089921
 30
0.0
 40
0.9999999999996541
 50
93.044502082100337
 51
119.2798197006002
  0
ARC
  5
4CC
  8
0
  6
CONTINUOUS
 62
     7
 10
198.4142480502
 20
100.0830187125899
 30
0.0
 40
0.999999999999612
 50
270.0
 51
299.27981970060023
  0
ARC
  5
4CD
  8
0
  6
CONTINUOUS
 62
     7
 10
182.03279348909999
 20
97.283018712589922
 30
0.0
 40
1.9249753208292351
 50
270.0
 51
90.0
  0
ARC
  5
4CE
  8
0
  6
CONTINUOUS
 62
     7
 10
228.9759600022
 20
97.283018712589922
 30
0.0
 40
1.9249753208292351
 50
90.0
 51
270.0
  0
CIRCLE
  5
2FB
 67
     1
  8
0
  6
CONTINUOUS
 62
     7
 10
208.46772789490001
 20
-2.7999999999999989
 30
0.0
 40
1.9249753208292451
  0
CIRCLE
  5
302
 67
     1
  8
0
  6
CONTINUOUS
 62
     7
 10
193.43732555400001
 20
-2.7999999999999989
 30
0.0
 40
1.9249753208292339
  0
LINE
  5
39A
 67
     1
  8
0
  6
CONTINUOUS
 62
     7
 10
213.1697926937
 20
0.0
 30
0.0
 11
213.1697926937
 21
-5.0
 31
0.0
  0
LINE
  5
39B
 67
     1
  8
0
  6
CONTINUOUS
 62
     7
 10
204.3525267245
 20
-5.0
 30
0.0
 11
204.3525267245
 21
-0.5
 31
0.0
  0
LINE
  5
39C
 67
     1
  8
0
  6
CONTINUOUS
 62
     7
 10
205.5835186173
 20
0.0
 30
0.0
 11
205.5835186173
 21
-0.5
 31
0.0
  0
LINE
  5
39D
 67
     1
  8
0
  6
CONTINUOUS
 62
     7
 10
213.2582300565
 20
0.0
 30
0.0
 11
213.2582300565
 21
-5.0
 31
0.0
  0
LINE
  5
39E
 67
     1
  8
0
  6
CONTINUOUS
 62
     7
 10
205.5835186173
 20
-0.5
 30
0.0
 11
196.32351862280001
 21
-0.5
 31
0.0
  0
LINE
  5
39F
 67
     1
  8
0
  6
CONTINUOUS
 62
     7
 10
188.73838152409999
 20
-5.0
 30
0.0
 11
188.73838152409999
 21
0.0
 31
0.0
  0
LINE
  5
3A0
 67
     1
  8
0
  6
CONTINUOUS
 62
     7
 10
196.32351862280001
 20
0.0
 30
0.0
 11
196.32351862280001
 21
-0.5
 31
0.0
  0
LINE
  5
3A1
 67
     1
  8
0
  6
CONTINUOUS
 62
     7
 10
197.5525267189
 20
-0.5
 30
0.0
 11
197.55252672169999
 21
-5.0
 31
0.0
  0
LINE
  5
3A2
 67
     1
  8
0
  6
CONTINUOUS
 62
     7
 10
188.65052343479999
 20
-5.0
 30
0.0
 11
188.65052343479999
 21
0.0
 31
0.0
  0
LINE
  5
3A3
 67
     1
  8
0
  6
CONTINUOUS
 62
     7
 10
188.00052711820001
 20
0.0
 30
0.0
 11
188.00052711820001
 21
-5.0
 31
0.0
  0
LINE
  5
3A4
 67
     1
  8
0
  6
CONTINUOUS
 62
     7
 10
187.59041903479999
 20
0.0
 30
0.0
 11
187.59041903479999
 21
-5.0
 31
0.0
  0
LINE
  5
3A5
 67
     1
  8
0
  6
CONTINUOUS
 62
     7
 10
214.3183344565
 20
-5.0
 30
0.0
 11
214.3183344565
 21
0.0
 31
0.0
  0
LINE
  5
3A6
 67
     1
  8
0
  6
CONTINUOUS
 62
     7
 10
213.90822637310001
 20
0.0
 30
0.0
 11
213.90822637310001
 21
-5.0
 31
0.0
  0
LINE
  5
3A7
 67
     1
  8
0
  6
CONTINUOUS
 62
     7
 10
197.80252672450001
 20
-5.0
 30
0.0
 11
197.80252672450001
 21
-0.5
 31
0.0
  0
LINE
  5
3A8
 67
     1
  8
0
  6
CONTINUOUS
 62
     7
 10
204.1025267245
 20
-0.5
 30
0.0
 11
204.1025267245
 21
-5.0
 31
0.0
  0
LINE
  5
3A9
 67
     1
  8
0
  6
CONTINUOUS
 62
     7
 10
186.94042271820001
 20
0.0
 30
0.0
 11
186.94042271820001
 21
-5.0
 31
0.0
  0
LINE
  5
3AA
 67
     1
  8
0
  6
CONTINUOUS
 62
     7
 10
186.53031463479999
 20
0.0
 30
0.0
 11
186.53031463479999
 21
-5.0
 31
0.0
  0
LINE
  5
3AB
 67
     1
  8
0
  6
CONTINUOUS
 62
     7
 10
215.3784388565
 20
-5.0
 30
0.0
 11
215.3784388565
 21
0.0
 31
0.0
  0
LINE
  5
3AC
 67
     1
  8
0
  6
CONTINUOUS
 62
     7
 10
214.96833077310001
 20
0.0
 30
0.0
 11
214.96833077310001
 21
-5.0
 31
0.0
  0
LINE
  5
3AD
 67
     1
  8
0
  6
CONTINUOUS
 62
     7
 10
204.1025267245
 20
-1.0
 30
0.0
 11
203.49278918979999
 21
-1.0
 31
0.0
  0
LINE
  5
3AE
 67
     1
  8
0
  6
CONTINUOUS
 62
     7
 10
203.00371392229999
 20
-0.872241585
 30
0.0
 11
202.71899892799999
 21
-0.7125988159000001
 31
0.0
  0
LINE
  5
3AF
 67
     1
  8
0
  6
CONTINUOUS
 62
     7
 10
199.18824640400001
 20
-0.7124821365000001
 30
0.0
 11
198.90332331779999
 21
-0.872241585
 31
0.0
  0
LINE
  5
3B0
 67
     1
  8
0
  6
CONTINUOUS
 62
     7
 10
198.4142480502
 20
-1.0
 30
0.0
 11
197.80252672450001
 21
-1.0
 31
0.0
  0
LINE
  5
3B1
 67
     1
  8
0
  6
CONTINUOUS
 62
     7
 10
185.88031831820001
 20
0.0
 30
0.0
 11
185.88031831820001
 21
-5.0
 31
0.0
  0
LINE
  5
3B2
 67
     1
  8
0
  6
CONTINUOUS
 62
     7
 10
185.47021023479999
 20
0.0
 30
0.0
 11
185.47021023479999
 21
-5.0
 31
0.0
  0
LINE
  5
3B3
 67
     1
  8
0
  6
CONTINUOUS
 62
     7
 10
216.4385432565
 20
-5.0
 30
0.0
 11
216.4385432565
 21
0.0
 31
0.0
  0
LINE
  5
3B4
 67
     1
  8
0
  6
CONTINUOUS
 62
     7
 10
216.02843517310001
 20
0.0
 30
0.0
 11
216.02843517310001
 21
-5.0
 31
0.0
  0
LINE
  5
3B5
 67
     1
  8
0
  6
CONTINUOUS
 62
     7
 10
217.08853957310001
 20
-5.0
 30
0.0
 11
217.08853957310001
 21
0.0
 31
0.0
  0
LINE
  5
3B6
 67
     1
  8
0
  6
CONTINUOUS
 62
     7
 10
217.1758575451
 20
-5.0
 30
0.0
 11
217.1758575451
 21
0.0
 31
0.0
  0
LINE
  5
3B7
 67
     1
  8
0
  6
CONTINUOUS
 62
     7
 10
184.82021391820001
 20
0.0
 30
0.0
 11
184.82021391820001
 21
-5.0
 31
0.0
  0
LINE
  5
3B8
 67
     1
  8
0
  6
CONTINUOUS
 62
     7
 10
184.73289594619999
 20
0.0
 30
0.0
 11
184.73289594619999
 21
-5.0
 31
0.0
  0
LINE
  5
3B9
 67
     1
  8
0
  6
CONTINUOUS
 62
     7
 10
178.2081102775
 20
-0.8750246792
 30
0.0
 11
178.2081102775
 21
-4.7249753207999987
 31
0.0
  0
LINE
  5
3BA
 67
     1
  8
0
  6
CONTINUOUS
 62
     7
 10
178.2081102775
 20
-4.7249753207999987
 30
0.0
 11
182.03279348909999
 21
-4.7249753207999987
 31
0.0
  0
LINE
  5
3BB
 67
     1
  8
0
  6
CONTINUOUS
 62
     7
 10
182.03279348909999
 20
-0.8750246792
 30
0.0
 11
178.2081102775
 21
-0.8750246792
 31
0.0
  0
LINE
  5
3BC
 67
     1
  8
0
  6
CONTINUOUS
 62
     7
 10
177.10061803470001
 20
-5.0
 30
0.0
 11
177.10061803470001
 21
0.0
 31
0.0
  0
LINE
  5
3BD
 67
     1
  8
0
  6
CONTINUOUS
 62
     7
 10
178.65831229969999
 20
-4.7249753207999987
 30
0.0
 11
178.65831229969999
 21
-0.8750246792
 31
0.0
  0
LINE
  5
3BE
 67
     1
  8
0
  6
CONTINUOUS
 62
     7
 10
232.35246333800001
 20
-0.8750246792
 30
0.0
 11
232.35246333800001
 21
-4.7249753207999987
 31
0.0
  0
LINE
  5
3BF
 67
     1
  8
0
  6
CONTINUOUS
 62
     7
 10
232.8046573732
 20
-4.7249753207999987
 30
0.0
 11
232.8046573732
 21
-0.8750246792
 31
0.0
  0
LINE
  5
3C0
 67
     1
  8
0
  6
CONTINUOUS
 62
     7
 10
233.90813545660001
 20
0.0
 30
0.0
 11
233.90813545660001
 21
-5.0
 31
0.0
  0
LINE
  5
3C1
 67
     1
  8
0
  6
CONTINUOUS
 62
     7
 10
223.96696000220001
 20
0.0
 30
0.0
 11
223.96696000220001
 21
-5.0
 31
0.0
  0
LINE
  5
3C2
 67
     1
  8
0
  6
CONTINUOUS
 62
     7
 10
232.8046573732
 20
-0.8750246792
 30
0.0
 11
228.9759600022
 21
-0.8750246792
 31
0.0
  0
LINE
  5
3C3
 67
     1
  8
0
  6
CONTINUOUS
 62
     7
 10
228.9759600022
 20
-4.7249753207999987
 30
0.0
 11
232.8046573732
 21
-4.7249753207999987
 31
0.0
  0
LINE
  5
3C4
 67
     1
  8
0
  6
CONTINUOUS
 62
     7
 10
237.10233777639999
 20
-5.0
 30
0.0
 11
173.0745266614
 21
-5.0
 31
0.0
  0
LINE
  5
3C5
 67
     1
  8
0
  6
CONTINUOUS
 62
     7
 10
237.10233777639999
 20
0.0
 30
0.0
 11
173.0745266614
 21
0.0
 31
0.0
  0
LINE
  5
3C6
 67
     1
  8
0
  6
CONTINUOUS
 62
     7
 10
217.6669600022
 20
-5.0
 30
0.0
 11
217.6669600022
 21
0.0
 31
0.0
  0
LINE
  5
3C7
 67
     1
  8
0
  6
CONTINUOUS
 62
     7
 10
176.8049498243
 20
-5.0
 30
0.0
 11
176.8049498243
 21
0.0
 31
0.0
  0
LINE
  5
3C8
 67
     1
  8
0
  6
CONTINUOUS
 62
     7
 10
234.20380366699999
 20
0.0
 30
0.0
 11
234.20380366699999
 21
-5.0
 31
0.0
  0
LINE
  5
3C9
 67
     1
  8
0
  6
CONTINUOUS
 62
     7
 10
234.69567945049999
 20
0.0
 30
0.0
 11
234.69567945049999
 21
-5.0
 31
0.0
  0
LINE
  5
3CA
 67
     1
  8
0
  6
CONTINUOUS
 62
     7
 10
176.31307404079999
 20
0.0
 30
0.0
 11
176.31307404079999
 21
-5.0
 31
0.0
  0
LINE
  5
3CB
 67
     1
  8
0
  6
CONTINUOUS
 62
     7
 10
235.00602310900001
 20
-5.0
 30
0.0
 11
235.00602310900001
 21
0.0
 31
0.0
  0
LINE
  5
3CC
 67
     1
  8
0
  6
CONTINUOUS
 62
     7
 10
176.00273038239999
 20
0.0
 30
0.0
 11
176.00273038239999
 21
-5.0
 31
0.0
  0
LINE
  5
3CD
 67
     1
  8
0
  6
CONTINUOUS
 62
     7
 10
235.49789889249999
 20
0.0
 30
0.0
 11
235.49789889249999
 21
-5.0
 31
0.0
  0
LINE
  5
3CE
 67
     1
  8
0
  6
CONTINUOUS
 62
     7
 10
175.51085459879999
 20
0.0
 30
0.0
 11
175.51085459879999
 21
-5.0
 31
0.0
  0
LINE
  5
3CF
 67
     1
  8
0
  6
CONTINUOUS
 62
     7
 10
235.80824255089999
 20
-5.0
 30
0.0
 11
235.80824255089999
 21
0.0
 31
0.0
  0
LINE
  5
3D0
 67
     1
  8
0
  6
CONTINUOUS
 62
     7
 10
175.20051094039999
 20
0.0
 30
0.0
 11
175.20051094039999
 21
-5.0
 31
0.0
  0
LINE
  5
3D1
 67
     1
  8
0
  6
CONTINUOUS
 62
     7
 10
217.66793186749999
 20
-0.8221093268999998
 30
0.0
 11
217.6669600022
 21
-0.8222773064
 31
0.0
  0
LINE
  5
3D2
 67
     1
  8
0
  6
CONTINUOUS
 62
     7
 10
217.66793186749999
 20
-5.0
 30
0.0
 11
217.66793186749999
 21
-0.8221093268999998
 31
0.0
  0
LINE
  5
3D3
 67
     1
  8
0
  6
CONTINUOUS
 62
     7
 10
236.30011833450001
 20
0.0
 30
0.0
 11
236.30011833450001
 21
-5.0
 31
0.0
  0
LINE
  5
3D4
 67
     1
  8
0
  6
CONTINUOUS
 62
     7
 10
174.7086351568
 20
0.0
 30
0.0
 11
174.7086351568
 21
-5.0
 31
0.0
  0
LINE
  5
3D5
 67
     1
  8
0
  6
CONTINUOUS
 62
     7
 10
236.61046199290001
 20
-5.0
 30
0.0
 11
236.61046199290001
 21
0.0
 31
0.0
  0
LINE
  5
3D6
 67
     1
  8
0
  6
CONTINUOUS
 62
     7
 10
174.3982914984
 20
0.0
 30
0.0
 11
174.3982914984
 21
-5.0
 31
0.0
  0
LINE
  5
3D7
 67
     1
  8
0
  6
CONTINUOUS
 62
     7
 10
237.10233777639999
 20
-5.0
 30
0.0
 11
237.10233777639999
 21
0.0
 31
0.0
  0
LINE
  5
3D8
 67
     1
  8
0
  6
CONTINUOUS
 62
     7
 10
173.90641571489999
 20
0.0
 30
0.0
 11
173.90641571489999
 21
-5.0
 31
0.0
  0
LINE
  5
3D9
 67
     1
  8
0
  6
CONTINUOUS
 62
     7
 10
173.67452666139999
 20
-5.0
 30
0.0
 11
173.67452666139999
 21
0.0
 31
0.0
  0
LINE
  5
3DA
 67
     1
  8
0
  6
CONTINUOUS
 62
     7
 10
173.0745266614
 20
0.0
 30
0.0
 11
173.0745266614
 21
-5.0
 31
0.0
  0
ARC
  5
3DB
 67
     1
  8
0
  6
CONTINUOUS
 62
     7
 10
203.49278918979999
 20
0.0
 30
0.0
 40
1.000000000000111
 50
240.7201802994
 51
270.0
  0
ARC
  5
3DC
 67
     1
  8
0
  6
CONTINUOUS
 62
     7
 10
202.22992366049999
 20
-1.5848404008999999
 30
0.0
 40
0.9999999999996326
 50
60.720180299399999
 51
86.950259939399984
  0
ARC
  5
3DD
 67
     1
  8
0
  6
CONTINUOUS
 62
     7
 10
200.95252672449999
 20
-25.560759024900001
 30
0.0
 40
25.009923298408349
 50
86.950259939399984
 51
93.044502082099996
  0
ARC
  5
3DE
 67
     1
  8
0
  6
CONTINUOUS
 62
     7
 10
199.67732167150001
 20
-1.5847237215000001
 30
0.0
 40
0.9999999999996541
 50
93.044502082099996
 51
119.2798197006
  0
ARC
  5
3DF
 67
     1
  8
0
  6
CONTINUOUS
 62
     7
 10
198.4142480502
 20
0.0
 30
0.0
 40
0.999999999999612
 50
270.0
 51
299.2798197006
  0
ARC
  5
3E0
 67
     1
  8
0
  6
CONTINUOUS
 62
     7
 10
182.03279348909999
 20
-2.7999999999999989
 30
0.0
 40
1.9249753208292351
 50
270.0
 51
90.0
  0
ARC
  5
3E1
 67
     1
  8
0
  6
CONTINUOUS
 62
     7
 10
228.9759600022
 20
-2.7999999999999989
 30
0.0
 40
1.9249753208292351
 50
90.0
 51
270.0
  0
VIEWPORT
  5
3E2
 67
     1
  8
0
 10
209.9054486935056
 20
58.452056986840091
 30
0.0
 40
844.09843677436652
 41
400.76383621477987
 68
     1
 69
     1
1001
ACAD
1000
MVIEW
1002
{
1070
    16
1010
0.0
1020
0.0
1030
0.0
1010
0.0
1020
0.0
1030
1.0
1040
0.0
1040
400.76383621477987
1040
209.9054486935056
1040
58.452056986840091
1040
50.0
1040
0.0
1040
0.0
1070
     0
1070
   100
1070
     1
1070
     3
1070
     0
1070
     0
1070
     0
1070
     0
1040
0.0
1040
0.0
1040
0.0
1040
10.0
1040
10.0
1040
10.0
1040
10.0
1070
     0
1002
{
1002
}
1002
}
  0
ENDSEC
  0
EOF
